Cuando Llora Mi Guitarra chords

Gian Marco

Key: 

Simplify chords 

Try Fender Play free for 14 days

  			Cuando llora mi guitarra 


x siaca sta en Re mayor...(creo)...=S, ..no ta exacto...pero esta en un 90% 
... y jaja nose kien saco la otra version pero  lo saco medio tono arriba 
creo..jaja ponganle feeling ps..!! xq este vals es uniko!! y es Peruano!! 

Feliz 28 a tooos!! 

                                                        < Alejo > 



e|---14----10-----------------10--10--9---10--9---10--9----10--9----8--9-- 
B|---15----12--------12-------12--12--11--12--11--12--11---12--10---9--10- 
G|---14----11-----11-------11--------------------------------------------- 
D|-------------12-------12------------------------------------------------ 
A|------------------------------------------------------------------------ 
E|------------------------------------------------------------------------ 


e|--------------------9---9---8--9---8--9---9--------9---7--8--9---------- 
B|-9---10--------10---10--10--9--10--9--10--10-------10--9--9--10-------10 
G|-10--11-----11-----------------------------------------------------11--- 
D|---------11-----------------------------------------------------11------ 
A|------------------------------------------------------------------------ 
E|------------------------------------------------------------------------ 

e|--9----8---------9----10--9---7-----2--5----2------------- 
B|--10---9---------10---12--10--9----------2---------2------ 
G|---------9---10--------------------------------2---------- 
D|---------10--11---------------------------------------4--- 
A|---------------------------------------------------------- 
E|---------------------------------------------------------- 




                  F#m                     Bm                    D-Db7 
Cansado de llamarte....con mi alma destrozada...comprendo q no vienes.... 
                                                D|-------------------- 
                                                A|--2---4-5---(bajos)- 
                                                E|--------------------- 


                Db7 
xq no kiere Dios......... 
                e|-1-2-3-4 
                B|-3-4-5-6 


            Bm                         F#m                  Db7 
y al ver q inutilmente..te envio mis palabras ..llorando mi guitarra 

         F#       F#7           Bm                             F#m 
te deja oir su voz...y al ver q inutilmente...te envio mis palabras... 


                 D          Db7           (llamada..) 
llorando mi guitarra..te deja oir su voz... 

                                e|-2-5---2------------------------------- 
                                B|-----2------2-------------------------- 
                                G|----------2---------------------------- 
                                D|---------------4---4-2--2(L)0---------- 
                                A|-------------------------------4--2---- 
                                E|-------------------------------------2- 

Bm(D)                             (D)(Bm)    F#m 
llora guitarra porque eres mi voz de dolor, grita su nombre de nuevo 

    F#           F#7     Bm 
si no te esucho          yyyyyyy  dile...que aun la quiero 

               D             F#m                        Db7 
que aun la espero que vuelvaaaa que si no viene mi amor no tiene consuelo 





                              F#       F#7               Bm 
que solitario sin su cariño me muerooooo.....guiiiiiiiiitarra, 


                           D        F#m                            D 
tu que interpretas en tu vibrar mi quebranto tu que recibes en tu madero 

F#m                             D           Db7 
mi llanto llora conmigo si no la vieras volver 




SOLO (es practikmnt = q el intro) 



al final dl solo vien la "llamada" 
anterior y c repit la otra strofa 




Bm(D)                             (D)(Bm)    F#m 
llora guitarra porque eres mi voz de dolor, grita su nombre de nuevo 

    F#           F#7     Bm 
si no te esucho          yyyyyyy  dile...que aun la quiero 

               D               F#m 
que aun la espero que vuelvaaaa que si no viene mi amor no tiene consuelo 





                              F#       F#7               Bm 
que solitario sin su cariño me muerooooo.....guiiiiiiiiitarra, 


                           D        F#m 
tu que interpretas en tu vibrar mi quebranto tu que recibes en tu madero 



                  (areglo final 1)                 (arreglo final 2) 
mi llanto  llora conmigo si no la veirasss....     volveeeeeeeeer....... 





               arreglo final 1 

e|------------------7----7/10-10/9--9-----| 
B|-----------6-9-6----9-------------------| 
G|---------7------------------------------| 
D|---6--9---------------------------------| 
A|-8--------------------------------------| 
E|----------------------------------------| 


                  arreglo final 2 

e|-----------------9--9--9---8-9--------14----13-----14--| 
B|----12/10-9--10--10-10-10--9-10----15----14-----15-----| 
G|-------11-10-11----------------------------------------| 
D|-------------------------------------------------------| 
A|-------------------------------------------------------| 
E|-------------------------------------------------------|