Pandy Fackler chords

Ween

Key: 

  			Nobody has a tab out for this song that I could find, so I wanted to throw a rough 
one up for anyone trying to learn it. 


Intro Lick 
|--------------------------| 
|--------------------------| 
|------------------2-------| 
|------------2-4-5---4---0-| 
|------2-3-5---------------| 
|--3-5---------------------| 

Chords use for the verse 

Gmaj7   Cmaj7    Amaj7     D 

|--/3------3-------0-------------------| 
|--/3------5-------1-------7-----------| 
|--/4------4-------0-------7-----------| 
|--/4------5-------2-------7-----------| 
|--/x------3-------0-------5-----------| 
|--/3------x-------x-------------------| 

For the break, play the intro with one added note 
|---------------------------| 
|---------------------------| 
|------------------2--------| 
|------------2-4-5---4---0--| 
|------2-3-5----------------| 
|-2-3-5---------------------| 


|------------------------------------------------------| 
|------------------------------------------------------| 
|--4-4-2-0---0-2-4-2-0-------5-4-2-0-------------------| 
|----------2-----------4-2-0---------4-2-0-------------| 
|------------------------------------------3-2-0-------| 
|------------------------------------------------0-2-3-| 

|--------------------------| 
|--------------------------| 
|------------------2-------| 
|------------2-4-5---4---0-| 
|------2-3-5---------------| 
|--3-5---------------------| 


This should get you guys started, I'll post a more complete tab when I get a chance to.