True Colors chords

Zedd

  			e|---------------------------------------------------------------| 
B|---------------------------------------------------------------| 
G|--15-15-15--13-13-13--11-11-11--10-8---------------------------|  x3 
D|---------------------------------------------------------------| 
A|---------------------------------------------------------------| 
E|---------------------------------------------------------------| 

e|---------------------------------------------------------------| 
B|---------------------------------------------------------------| 
G|--15-15-15--13-13-13--11-11-11--11-10--------------------------| 
D|---------------------------------------------------------------| 
A|---------------------------------------------------------------| 
E|---------------------------------------------------------------| 

e|---------------------------------------------------------------| 
B|---------------------------------------------------------------| 
G|--13-13-13--11-11-11--10-10-10--10-----------------------------|  x2 
D|---------------------------------------------------------------| 
A|---------------------------------------------------------------| 
E|---------------------------------------------------------------| 

e|---------------------------------------------------------------| 
B|---------------------------------------------------------------| 
G|--16-16-16--15-15-15--13-13-13--11-11--------------------------| 
D|---------------------------------------13----------------------| 
A|---------------------------------------------------------------| 
E|---------------------------------------------------------------| 

Repeat from the beginning~