Mau Acostumado chords

Araketu

  			e|---------------------------------------------------1---3-|-6-6-6-6|------------------  
B|---------3-4-3-----------1-3-4-3-1-----------1-3-4---4---|--------|9-9-8~------------  
G|-------5-------5----1~-1-----------1-3~----3-------------|--------|------------------  
D|-----5------------5-----------------------3--------------|--------|------------------  
A|----------------------------------------------------------|--------|------------------  
E|----------------------------------------------------------|--------|------------------  
                                                            Essa parte é bem rápida  

e|----------------------------------------------------------------------|------|--------  
B|-------3-4-3------------1-3-4-3-1----------------6---8---8h9h8-6~~-8-|6-6-6-|--------  
G|-----5-------5----1~--1-----------1-3~------5-7-8---8-----------------|------|8-7-5~~-  
D|---5------------5-------------------------8---------------------------|------|--------  
A|----------------------------------------8-----------------------------|------|--------  
E|----------------------------------------------------------------------|------|--------