Mais Que Melhor chords

Asa de Águia

Key: 

  			"Mais Que Melhor" 
Asa de Águia 

Obs.: Afinação: Eb 

Seqüência das cordas na leitura das tablaturas: 
e|------------------ 
B|------------------ 
G|------------------ 
D|------------------ 
A|------------------ 
E|------------------ 

Riff1: 

|----------------------------------------- 
|----------------------------------------- 
|----------------------------------------- 
|---0---2---4--------------------------- 
|----------------------------------------- 
|----------------------------------------- 


Riff2: 

|---------3---2---1--------------------- 
|----3----------------------------------- 
|----------------------------------------- 
|----------------------------------------- 
|----------------------------------------- 
|----------------------------------------- 


Intro: 

|-----------------------10~~---------------------------10~~-------------------------------- 
|----12p10--------------------------12p10-------------------------------------------------- 
|----------------12-------------------------------12------------------------------------------- 
|------------------------------------------------------------------------------------------------- 
|------------------------------------------------------------------------------------------------- 
|------------------------------------------------------------------------------------------------- 

|--------10h12--12--10--------------------------------------------------------------------- 
|------------------------------12--8---------8-10-10/11--11--11--10--8--------------- 
|-----------------------------------------8-8--------------------------------------------------- 
|------------------------------------------------------------------------------------------------- 
|------------------------------------------------------------------------------------------------- 
|------------------------------------------------------------------------------------------------- 

|-----------------------10~~---------------------------10~~-------------------------------- 
|----12p10--------------------------12p10-------------------------------------------------- 
|----------------12-------------------------------12------------------------------------------- 
|------------------------------------------------------------------------------------------------- 
|------------------------------------------------------------------------------------------------- 
|------------------------------------------------------------------------------------------------- 

|--------10h12--12--10--12--12/15~~---------------15--17--17b------------------ 
|--------------------------------------------------15--17-------------------------------------- 
|------------------------------------------------------------------------------------------------- 
|------------------------------------------------------------------------------------------------- 
|------------------------------------------------------------------------------------------------- 
|------------------------------------------------------------------------------------------------- 
 

Am    
Se ainda tudo é belo 
                           D ( D4 D D9 D ) 
É porque você está ao meu redor 
        Bm/G               C7+ 
Você é pura sedução 
   Am                                              D 
Se tudo ainda pode ser mais que melhor 
        G    Bm/G  
Por mim 
        C7+ 
Eu já fui 
Am                                               D 
Loucamente as lembranças vem do gosto desse amor 
G            Bm/G 
Vivi você, 
                 C7+ 
Amei você assim 
Am                             D 
Todas as coisas que eu guardei em mim 

Riff1        G             C7+ 
Ainda eu quero, uôôôô 
            Am 
Ainda é belo 
            D                         G  Riff2 
Todo dia, só penso em você 

   
              C7+ 
E além do mais 
                    Cm/G#  
Não vou te deixar 
               G   Bm/G 
Quero te ver 
           G7 
Te amar de novo 
                 C7+ 
Vou te encontrar 
              Cm/G# 
Preste atenção 
               Am7 
Vamos ficar 
 

Solo: 
 
|-----------------------10~~---------------------------10~~-------------------------------- 
|----12p10--------------------------12p10-------------------------------------------------- 
|----------------12-------------------------------12------------------------------------------- 
|------------------------------------------------------------------------------------------------- 
|------------------------------------------------------------------------------------------------- 
|------------------------------------------------------------------------------------------------- 

|--------10h12--12--10--12--12/15~~---------------15--17--17b------------------- 
|-------------------------------------------------15--17--------------------------------------- 
|------------------------------------------------------------------------------------------------- 
|------------------------------------------------------------------------------------------------- 
|------------------------------------------------------------------------------------------------- 
|------------------------------------------------------------------------------------------------- 
 

Repete a música e, no final, o Refrão mais uma vez! 
Em seguida, vem o solo final... 

Solo final: 
 
|-----------------------10~~---------------------------10~~-------------------------------- 
|----12p10--------------------------12p10-------------------------------------------------- 
|----------------12-------------------------------12------------------------------------------- 
|------------------------------------------------------------------------------------------------- 
|------------------------------------------------------------------------------------------------- 
|------------------------------------------------------------------------------------------------- 

|--------10h12--12--10--------------------------------------------------------------------- 
|------------------------------12--8---------8-10-10b--8---------------------------------- 
|-----------------------------------------8-8--------------------------------------------------- 
|------------------------------------------------------------------------------------------------- 
|------------------------------------------------------------------------------------------------- 
|------------------------------------------------------------------------------------------------- 

|-----------------------12p10~~---------------------------10~~--------------------------- 
|----12p10--------------------------12p10-------------------------------------------------- 
|----------------12-------------------------------12------------------------------------------- 
|------------------------------------------------------------------------------------------------- 
|------------------------------------------------------------------------------------------------- 
|------------------------------------------------------------------------------------------------- 

|----10h12--12--10--12--12/15~~---------------15--17--17b---15---17---15~~ 
|----------------------------------------------15--17------------------------------------------ 
|------------------------------------------------------------------------------------------------- 
|------------------------------------------------------------------------------------------------- 
|------------------------------------------------------------------------------------------------- 
|------------------------------------------------------------------------------------------------- 
 


FIM! 

by Rodrigo Paulino