Tô a Tôa - Se Ligue (Solo do DVD) chords

Asa de Águia

  			  
E|---------------4--------5~--4~---------|  
B|---4-7----7-5-4-7-5-------------7-5-7~-|  
G|-4~----------------4~------------------| 
D|---------------------------------------| 
A|---------------------------------------| 
E|---------------------------------------| 
 
E|---------------4--------5~--4~----------------|  
B|---4-7----7-5-4-7-5-------------7-5-7-7-7-9-7~|  
G|-4~----------------4~-------------------------| 
D|----------------------------------------------| 
A|----------------------------------------------| 
E|----------------------------------------------|