You Know Who I Am chords

Leonard Cohen

Key: 

  			 Intro 
  Q=62 
  Am 
 6/8 
  Gtr I (Ac. Nylon Str. Gtr.) 
  S  S S S S S S S S S a S S   S  S S S S S S S S S a S S 
|----------------------------|----------------------------| 
|------0---1---3---1---0h1---|------0---1---3---1---0h1---| 
|------2---2---1---2-----2---|------2---0---1---2-----2---| 
|----2---2---2---2---2-----2-|----2---2---2---2---2-----2-| 
|-0--------------------------|-0--------------------------| 
|----------------------------|----------------------------| 
  H.                           H. 


    Am 
    S  S S S S S S S S S a S S   S  S S S S S S S S S a S S 
||-----------------------------|----------------------------|| 
||o------0---1---3---1---0h1---|------0---1---3---1---0h1---|| 
||-------2---2---1---2-----2---|------2---0---1---2-----2---|| 
||-----2---2---2---2---2-----2-|----2---2---2---2---2-----2-|| 
||o-0--------------------------|-0--------------------------|| 
||-----------------------------|----------------------------|| 
    H.                           H. 


 1st - 4th Verses 
  Am                          Bm 
  S  S S S S S S  S S S S S   S  S S S S S S  S S S S S 
|---------------------------|---------------------------| 
|------1---1--------1---1---|------3---3--------3---3---| 
|------2---2--------2---2---|------4---4--------4---4---| 
|----2---2---2----2---2---2-|----4---4---4----4---4---4-| 
|-0------------0------------|-2------------2------------| 
|---------------------------|---------------------------| 
  Q.           Q.             Q.           Q. 


  Am                          Bm 
  S  S S S S S S  S S S S S   S  S S S a S S S  S S S S S 
|---------------------------|-----------------------------| 
|------1---1--------1---1---|------3---2h3--------3---3---| 
|------2---2--------2---2---|------4-----4--------4---4---| 
|----2---2---2----2---2---2-|----4---4-----4----4---4---4-| 
|-0------------0------------|-2--------------2------------| 
|---------------------------|-----------------------------| 
  Q.           Q.             Q.             Q. 


  D                           A 
  S  S S S S S S  S S S S S   S  S S S a S S S  S S S S S 
|------2---2--------2---2---|------0-----0--------0---0---| 
|------3---3--------3---3---|------2---0h2--------2---2---| 
|----2---2---2----2---2---2-|----2---2-----2----2---2---2-| 
|-0------------0------------|----------------2------------| 
|---------------------------|-0---------------------------| 
|---------------------------|-----------------------------| 
  Q.           Q.             Q.             Q. 


  G            Gmaj7          E 
  S  S S S S S S  S S S S S   S  S S S a S S S  S S S S S 
|---------------------------|---------------------0---0---|| 
|------0---0--------0---0---|------0-----0--------0---1---|| 
|------0---0--------0---0---|------1---0h1------1---1---1-|| 
|----0---0---0----0---0---0-|----2---2-----2--------------|| 
|---------------------------|----------------2------------|| 
|-3------------2------------|-0---------------------------|| 
  Q.           Q.             Q.             Q. 


 Chorus 
  D            A                             D 
  S  S S S S S S  S S S a S S   S  S S S S S S  S S S S S 
|------2---2--------0-----0---|------0---0--------2---2---| 
|------3---3--------2---0h2---|------2---2--------3---3---| 
|----2---2---2----2---2-----2-|----2---2---2----2---2---2-| 
|-0---------------------------|-2------------0------------| 
|--------------0--------------|---------------------------| 
|-----------------------------|---------------------------| 
  Q.           Q.               Q.           Q. 


  A                             D            A 
  S  S S S a S S S  S S S S S   S  S S S S S S  S S S S S 
|------0-----0--------0---0---|------2---2--------0---0---| 
|------2---0h2--------2---2---|------3---3--------2---2---| 
|----2---2-----2----2---2---2-|----2---2---2----2---2---2-| 
|----------------2------------|-0-------------------------| 
|-0---------------------------|--------------0------------| 
|-----------------------------|---------------------------| 
  Q.             Q.             Q.           Q. 


  G            Gmaj7          E 
  S  S S S S S S  S S S S S   S  S S S a S S S  S S S S S 
|---------------------------|-----------------------------| 
|------0---0--------0---0---|------0-----0--------0---0---| 
|------0---0--------0---0---|------1---0h1--------0---1---| 
|----0---0---0----0---0---0-|----2---2-----2----2---2---2-| 
|---------------------------|-----------------------------| 
|-3------------2------------|-0--------------0------------| 
  Q.           Q.             Q.             Q. 


                                 Outro 
                                  Am 
  S  S S S a S S S  S S S S S  4x S S S S S S S S S S S S 
|------------------------------||-----3---1---0---1---0---| 
|------0-----0--------0---0---o||-----1---1---1---1---1---| 
|------1---0h1--------0---1----||---2---2---2---2---2---2-| 
|----2---2-----2----2---2---2--||-------------------------| 
|-----------------------------o||-0-----------------------| 
|-0--------------0-------------||-------------------------| 
  Q.             Q. 


  S S S S S S S S S S S S   Q.   Q  E 
|-----3---1---0---1---0---|-----------*| 
|-----1---1---1---1---1---|-1---------*| 
|---2---2---2---2---2---2-|-2---------*| 
|-------------------------|-2---------*| 
|-0-----------------------|-0---------*| 
|-------------------------|-----------*| 
                            Q.   Q  E