Crave chords

Marc Dorsey

Key: 

  			Oh... 
-----------------------| 
--2--4--5--4--2--0-----| 
--------------------2--| 
-----------------------| 
-----------------------| 
-----------------------| 

whoa... 
-----------------------| 
--2--4--5--4--2--0-----| 
--------------------1--| 
-----------------------| 
-----------------------| 
-----------------------| 

-----------------------| 
--2--4--5--4--2--0-----| 
--------------------2--| 
-----------------------| 
-----------------------| 
-----------------------| 

I crave... 
-------------------------------------------------------------| 
--2--4--5--4--2--4----- --> this leads to chord E at verse 1-| 
-------------------------------------------------------------| 
-------------------------------------------------------------| 
-------------------------------------------------------------| 
-------------------------------------------------------------| 

(Verse 1) 
    E 
I wake up to shadows 

Touching your pillow 
  A 
Looking for a trace of your smile 
     E 
And that's when it hit me 

You're no longer with me 
    A 
In fact it's been quite a while 
         C#m                           B 
Since I sit here drinking coffee as you sipped your tea 
         C#m                                B 
And you swore you'd always love and always care for me 
          A                              (B-B) strum twice 
And even though there's no more else to save 
             E 
It's you I crave 

(Chorus) 

I crave your touch 
             A 
I crave your lips 

I miss so much 
                       E 
The excitement of your kiss 
                  A 
And since you're gone 
                 B 
My heart won't behave 
            A       B          E 
It's your love that I still crave 

-----------------------| 
--5--4--5--5-----------| (3x) 
-----------------------| 
-----------------------| 
-----------------------| 
-----------------------| 

-------------------------------------------------------------| 
--2--4--5--4--2--0----- --> this leads to chord E at verse 2-| 
-------------------------------------------------------------| 
-------------------------------------------------------------| 
-------------------------------------------------------------| 
-------------------------------------------------------------| 

(Verse 2) 
        E 
It may look like I'm happy 
But people who know me 
       A 
They know that I'm not doing so well 
    E 
I heard you've been dating 
And though I've been waiting 
  A 
I had found you and no one else 
               C#m                          B 
And just the thought of never waking up with you again 
        C#m                              B 
Always turns me inside-out how could we let it end 
          A                              (B-B) strum twice 
And even though there's no more else to save 
It's you I crave 

(Chorus) 

I crave your touch 
             A 
I crave your lips 

I miss so much 
                       E 
The excitement of your kiss 
                  A 
And since you're gone 
                 B 
My heart won't behave 
            A       B     (leads to C#m at bridge) 
It's your love that I still crave 

(Bridge) 
              C#m 
I should have known 
               B 
I should have seen 
                 C#m 
'Cause you were always there 
  B               A 
Inside my every dream 



    	

Top songs from Marc Dorsey