Where Do You Go chords

No Mercy

Key: 

Simplify chords 

Try Fender Play free for 14 days

  			Where Do You Go? 
By No Mercy 
 
Tune guitars down 1/2 step 
 
D		       Bm		    G 
Where do you go my lovely 
Eb|---------------------------------------'---7-----| 
Bb|----------------------7----8----10-----'---------| 
Gb|---------------------------------------'---------| 
Db|-----------7----9----------------------'---------| 
Ab|---------------------------------------'---------| 
Eb|---------------------------------------'---------| 
 
	     A		  D 
Where do you go - I wanna know 
       Bm   				 G 
My lovely  
 
Eb|------10--10--10----9-----7--------'-------| 
Bb|-----------------------------------'---8---| 
 
	A 
I wanna know 
	     Bm	            A 
Where do you go? Oh, oh, ay oh 
        Bm		   A 
I wanna know	Oh, oh, ay oh 
	     Bm		     A 
Where do you go? Oh, oh, ... oh 
	Bm 
I wanna know 
 
 
	VERSE 1 
Bm 
You leave without a word 
	      A 
No message no number 
Bm					 A 
And now my head is poundin' like rollin' thunder 
Bm 
You left me with a heartache deep inside 
A 
Girl you should see me cry all night and I wonder 
Bm 
Everybody says what a shame what is wrong 
G			     A 
They don't like the game you play 
Bm 
Heard you're hangin' round every night until dawn 
   G				A 
And waiting for you night and day 
 
{Chorus} 
 
	VERSE 2 
Bm 
You gotta break the silence 
	      A 
Don't keep me waiting 
Bm 
Just like a river flowing to the sea 
A 
You're running back to me girl, hear what I'm saying 
	     D	       Bm		     
Where do you go my lovely 
 
  Bm				G			 A 
|-----------------------------'---7-----------------7--'-------------| 
|------------------7--8--10---'--------8--8--8--10-----'--10---------| 
|-----------------------------'------------------------'-------------| 
|-----------7--9--------------'------------------------'-------------| 
|-----------------------------'------------------------'-------------| 
|-----------------------------'------------------------'-------------| 
 
   D					Bm 
Eb|------------------7-9--10----10-10-'-10-9-9-9-9-7-7-7-7-------9-10-| 
Bb|--10-8-7-7-7-8-10------------------'-----------------------12------| 
 
   G					A 
Eb|-12---10---12------------------7-9-'-9---7-----------------------| 
Bb|----------------------------10-----'---------10------------------| 
 
 
	     Bm    A		    
Where do you go?      I wanna  
 
   Bm		 Em		 D		    A 
Eb|-------------'---------------'------------------'----------| 
Bb|-7-----7-7-7-'-7----8-5----5-'-5---7-3----3-3-3-'-5---3-2--| 
   know 
 
Bm			   G	C 
Where do you, where do you go? 
Bm			   G	C 
Where do you, where do you go? 
 
  D 
|-------------------------8--7------| 
|-10--10--10--10--10--10------------| 
|-7-----------7---------------------| 
|-7-----------7---------------------| 
|-----------------------------------| 
|-----------------------------------| 
	Save me 
 
Bm					  A 
Come back and dry the tears I cry for you baby 
 
Eb|----------------------| 
Bb|------5---7---5---5---| 
Gb|--6-7-----------7-----| 
 
Bm					 
You gotta stop this heartache deep inside 
D 
You gotta help me make it through the night 
A	D		  A  
Save me - come back and save me 
 
{Chorus} 
    	

Top songs from No Mercy