Fitter Happier chords

Radiohead

  			From "Ok Computer" 
Transcribed by Steven McGovern  

There is actually only piano is this but this is it for guitar 

      
e-------------------------8--6----------------------6---6----------------------------- 
B------------------------------------------------------------------------------------- 
G--6---5---6----6--5--6---------5---6---5---6--5------------5----6----5----6--5--6--5- 
D-------------------------------------------------3----------------------------------- 
A------------------------------------------------------------------------------------- 
E------------------------------------------------------------------------------------- 
      
Starts at "a patient better driver...... 

      
e--6---------------------------6----------------------------8---6----------------------------- 
B--------------------------------------------------------------------------------------------- 
G-----5---6---5----6--5--6--5--6----5----6----5----6--5--6---------5----6----5-----6--5--6--5- 
D--------------------------------------------------------------------------------------------- 
A--------------------------------------------------------------------------------------------- 
E--------------------------------------------------------------------------------------------- 
      

      
e--6------------------------------6------------------------8---6-----------------------6- 
B---------------------------------------------------------------------------------------- 
G--5----5---6---5----6--5--6--5-------7---8---7---8--7--8---------7---8---7---8--7--8---- 
D---------------------------------------------------------------------------------------- 
A---------------------------------------------------------------------------------------- 
E---------------------------------------------------------------------------------------- 
      


      
e--5------------------------6---5---------------------------6--------------------------6- 
B---------------------------------------------------------------------------------------- 
G-----5---7---5----7--5--7---------5---7---5----8--7--5--7------7----8----7---8--7--8---- 
D---------------------------------------------------------------------------------------- 
A---------------------------------------------------------------------------------------- 
E---------------------------------------------------------------------------------------- 
      

      
e--6-----------------------6--5---------------------------6--6-------------------------- 
B--------------------------------------------------------------------------------------- 
G-----7---8---7---8--7--8--------5---7---5----7--8--7--5-----7---5---7---5---7--8--7--5- 
D--------------------------------------------------------------------------------------- 
A--------------------------------------------------------------------------------------- 
E--------------------------------------------------------------------------------------- 
      

      
e--6----------------------------8---6------------------------------------------ 
B--6--------------------------------------------------------------------------- 
G--6---5---6---5------6--5--6-------6------------------------------------------ 
D-----------------3------------------------------------------------------------ 
A------------------------------------------------------------------------------ 
E------------------------------------------------------------------------------ 
      
                                     ....calm, fitter, healthier...... 

Steven McGovern