Dre chords

Warpaint

  			
"bodys asking for it, calling for it    Anyone around me...A compliment... 
G|-17\-5------------------------------7/12-----------------------------------| 
D|---------------------------------------------------------------------------| 
A|-15\--------------------------------5/10--------------------7--7-----------| 
E|---------------------------------------------------------------------------| 

in the studio version jenny plays instead of the first 7 on the A: 
G|----12---------------------------------------------------------------------| 
D|-10----10-14---------------------------------------------------------------| 
A|---------------------------------------------------------------------------| 
E|---------------------------------------------------------------------------| 

         Did we call it in before, In the times when we were new 
G|---------------------------------------------------------------------------| 
D|-7-5-----------------------------------------------------------------------| 
A|-------5----------------------5-------------------------------5-7----------| 
E|-----3---------------------------------------------------------------------| 
  
...To have us in mind...these days  
G|---------------------------------------------------------------------------| 
D|-------------------5-------------5-7---------------------------------------| 
A|---------------------------------------------------------------------------| 
E|---------------------------------------------------------------------------| 

Chorus 
     You sure look good...       And it does feel good... 
G|-5-------------------------------------------------------------------------| 
D|----------------------5-5-10---3--5----------------------------------------| 
A|-3-------------------------------------------------------------------------| 
E|---------------------------------------------------------------------------| 

   
G|-9--9-9--9-9--9--9-9-------------------------------------------------------| 
D|---------------------------------------------------------------------------| (2x) 
A|---------------------------------------------------------------------------| 
E|---------------------1/3---------------------------------------------------| 

  ....          Trying for love again.. 
G|-10\5----7/12--------------------------------------------------------------| 
D|---------------------------------------------------------------------------| 
A|--8\-----5/10-----------------------5-5--5-7-7-7-7-------------------------| 
E|---------------------------------------------------------------------------| 


G|-----------------------------|---------------------------------------------| 
D|-----------------------------|---------------------------------------------| 
A|-5-7--7--7-7--7--7--7--7-7--7|5--5--5-5--5-7--7--7-7--7--------------------| 
E|-----------------------------|---------------------------------------------| 

Chorus 
     You sure look good...       And it does feel good... 
G|-5-------------------------------------------------------------------------| 
D|----------------------5-5-5/10---3--5--------------------------------------| 
A|-3-------------------------------------------------------------------------| 
E|---------------------------------------------------------------------------| 
 I thought I told you, bitch I told you 
G|-9--9-9--9--9-9--9--9-9----------------------------------------------------| 
D|---------------------------------------------------------------------------|  
A|---------------------------------------------------------------------------| 
E|---------------------------------------------------------------------------| 

G|---------------------------------------------------------------------------| 
D|---------------------------------------------------------------------------| 
A|-10--5-5-5-5-3-3-3--3-5-5-5------------------------------------------------| 
E|---------------------------------------------------------------------------| 

G|-9--9-9--9-9--9--9-9-------------------------------------------------------| 
D|---------------------------------------------------------------------------| (3x) 
A|---------------------------------------------------------------------------| 
E|---------------------1/3---------------------------------------------------| 


************************************ 
| /   Slide up 
************************************