Motions chords

We Came As Romans

Key: 

  			Tuning: D 

e|---------------------------------------------------------------------------| 
B|---------------------------------------------------------------------------| 
G|--------------------------------------------7*-----------------------------| 
D|-----------------------------------------------------------(x8)------------| 
A|-0--0--0--0-0--0--0----9999977777666777666---------------------------------| 
D|-0--0--0--0-0--0--0--------------------------------------------------------| 
   .  .  .  . .  .  .    ................... 

e|--------------------------------------------------------------------------| 
B|--------------------------------------------------------------------------| 
G|--------------------------------------7*----------------------------------| 
D|----7-7-7-7-7-7-7-7--6-6-6-6-6-6-6-6--------------------------------(x3)--| 
A|----7-7-7-7-7-7-7-7--6-6-6-6-6-6-6-6-------000--00-00---00-00-------------| 
D|----7-7-7-7-7-7-7-7--6-6-6-6-6-6-6-6-------000--00-00---00-00-------------|             
                                ...  .. ..   .. .. 


e|--------------------------------------------------------------------------| 
B|--------------------------------------------------------------------------| 
G|--------------------------------------------------------------------------| 
D|----7-7-7-7-7-7-7-7--6-6-6-6-6-6-6-6--------------------------------------| 
A|----7-7-7-7-7-7-7-7--6-6-6-6-6-6-6-6-------000--00-00~--------------------| 
D|----7-7-7-7-7-7-7-7--6-6-6-6-6-6-6-6-------000--00-00~--------------------| 
                                             ...  .. .. 

e|--------------------------------------------------------------------------| 
B|--------------------------------------------------------------------------| 
G|--------------------------------------------------------------------------| 
D|--------------------------------------------------------------------------| 
A|--0000----------0000-------------0000---------0000~-----------------------| 
D|--0000----------0000-------------0000---------0000~-----------------------| 
    ....          ....             ....         .... 


e|--------------------------------------------------------------------------| 
B|--------------------------------------------------------------------------| 
G|--------------------------------------------------------------------------| 
D|----------------------------------(x4)------------------------------------| 
A|--0000--00-00--00--0-000--------------------------------------------------| 
D|--0000--00-00--00--0-000--------------------------------------------------| 
    ....  .. ..  ..  . ...