My Love chords

We Came As Romans

Key: 

  			

B,F#,B,E,G#,C#  
      Or  
B,Gb,B,E,Ab,Db  




You Can Play This In Drop D, Like They Would Live, But For The BreakDown Slides It  
Needs 2 Be In B, But It Doesnt Realyy Matter I Gues...  
Just Play Everything DOWN 3 Steps If You’r In D.  

Amazing Cover. (: 






‘Ain’t Another Woman That Could Take Your Spot, My Love...’ 
(0:00 - 0:19) 
|-------------------------------------------------| 
|-------------------------------------------------| 
|-------------------------------------------------| (x2) 
|-------------------------------------------------| 
|-555-555----555-555-5--555-555----5555-5-55555-5-| 
|-555-555----555-555-5--555-555----5555-5-55555-5-| 
  ... ...    ... ... .  ... ...    .... . ..... . 


(0:19 - 0:51) 

‘If I Wrote You A Symphony 
Just To Say How Much You Mean To Me 
     (What Would You Do?) 
If I Told You, You Were Beautiful 
Would You Date Me On The Regular? 
     (Tell Me Would You?) 

Well Baby, I've Been Around The World 
But I Ain't Seen Myself Another Girl 
             (Like You) 
This Ring Here Represents My Heart 
But There's Just One Thing I Need From You’ 
             (Say I Do)  



‘Because, I Could See Us Holding Hands...’ 
(0:51 - 1:06) 
|---------------------------------------------------------------------| 
|---------------------------------------------------------------------| 
|---------------------------------------------------------------------| (x2) 
|---------------------------------------------------------------------| 
|-555-5---55-5--121212-12121212--121212-12121212-10101010-101010-1010-| 
|-555-5---55-5--121212-12121212--121212-12121212-10101010-101010-1010-| 
  ...     ..    . .    . . .     . .    . . .    . .   .  . .    .  


‘My Love, So Don't Give Away...’ 
(1:06 - 1:23) 
|---------------------------------------------------------| 
|---------------------------------------------------------| 
|---------------------------------------------------------| (x2) 
|---------------------------------------------------------| 
|-555-55------121212-121212-12-12121212---101010-10101010-| 
|-555-55------121212-121212-12-12121212---101010-10101010-| 
  ... ..      . . .  . . .  .  . . . .    . . .  . . . . 


‘My Love, Love...’ 
(1:23 - 1:39)  
|-------------------------------------------------| 
|-------------------------------------------------| 
|-------------------------------------------------| (x2) 
|-------------------------------------------------| 
|-555-555----555-555-5--555-555----5555-5-55555-5-| 
|-555-555----555-555-5--555-555----5555-5-55555-5-| 
  ... ...    ... ... .  ... ...    .... . ..... . 


(1:39 - 2:12)  

‘Now If I Wrote You A Love Note 
And Made You Sign Up Every Word I Wrote 
        (What Would You Do?) 
Would That Make You Want To Change Your Scene 
And Want To Be The One On My Team? 
        (Tell Me Would You?) 

See, What's The Point In Waiting Anymore? 
'Cause Girl, I Never Been More Sure 
        (That Baby, It's You) 
This Ring Here Represents My Heart 
And Everything That You've Been Waiting For’ 
        (Just Say It, I Do) 



‘Because, I Could See Us Holding Hands...’ 
(2:12 - 2:29) 
|---------------------------------------------------------------------| 
|---------------------------------------------------------------------| 
|---------------------------------------------------------------------| (x2) 
|---------------------------------------------------------------------| 
|-555-5---55-5--121212-12121212--121212-12121212-10101010-101010-1010-| 
|-555-5---55-5--121212-12121212--121212-12121212-10101010-101010-1010-| 
  ...     ..    . .    . . .     . .    . . .    . .   .  . .    .  


‘My Love, So Don't Give Away...’ 
(2:29 - 2:44) 
|---------------------------------------------------------| 
|---------------------------------------------------------| 
|---------------------------------------------------------| (x2) 
|---------------------------------------------------------| 
|-555-55------121212-121212-12-12121212---101010-10101010-| 
|-555-55------121212-121212-12-12121212---101010-10101010-| 
  ... ..      . . .  . . .  .  . . . .    . . .  . . . . 


‘My Love, Love...’ 
(2:44 - 2:52) 
|-------------------------------------------------| 
|-------------------------------------------------| 
|-------------------------------------------------| 
|-------------------------------------------------| 
|-555-555----555-555-5--555-555----5555-5-55555-5-| 
|-555-555----555-555-5--555-555----5555-5-55555-5-| 
  ... ...    ... ... .  ... ...    .... . ..... . 



‘My Love, Love...’ 
(2:52 - 3:01) 
|------------------------------------------------5+-| 
|------------------------------------------------5+-| 
|------------------------------------------------5+-|                       
|-555-555----555-555-5--555-555----5555-5-55555-5---| 
|-555-555----555-555-5--555-555----5555-5-55555-5---| 
  ... ...    ... ... .  ... ...    ....   .....  


(3:01 - 3:09) 
|------------------------5+----------------------| 
|------------------------5+----------------------| 
|------------------------5+----------------------| 
|------------------------------------------------| 
|-5--555-555-----555-555-------55-55-5555-555555-| 
|-5--555-555-5/--555-555-------55-55-5555-555555-| 
  .  ... ...     ... ...       .. .. .... ...... 

(3:09 - 3:18) 
|-----------------------5+--------------------| 
|-----------------------5+--------------------| 
|-----------------------5+--------------------| 
|---------------------------------------------| 
|-55-5555-55---55-5555---------55-55-5555-555-| 
|-55-5555-55---55-5555-----5/--55-55-5555-555-| 
  .. .... ..   .. ....         .. .. .... ... 


‘My Love...’ 
(3:18 - 3:35) 
|---------------------------------------------------------------------| 
|---------------------------------------------------------------------| 
|---------------------------------------------------------------------| (x2) 
|---------------------------------------------------------------------| 
|-555-5---55-5--121212-12121212--121212-12121212-10101010-101010-1010-| 
|-555-5---55-5--121212-12121212--121212-12121212-10101010-101010-1010-| 
  ...     ..    . .    . . .     . .    . . .    . .   .  . .    .  


‘My Love, So Don't Give Away...’ 
(3:35 - 3:43) 
|---------------------------------------------------------| 
|---------------------------------------------------------| 
|---------------------------------------------------------|  
|---------------------------------------------------------| 
|-555-55------121212-121212-12-12121212---101010-10101010-| 
|-555-55------121212-121212-12-12121212---101010-10101010-| 
  ... ..      . . .  . . .  .  . . . .    . . .  . . . . 


‘My Love, So Don't Give Away...’ 
(3:43 - 3:53) 
|------------------------------------------------| 
|------------------------------------------------| 
|------------------------------------------------|  END. 
|-5~--------1212~---1212~-------1010~-------1010-| 
|-5~--------1212~---1212~-------1010~-------1010-| 
|-5~--------1212~---1212~-------1010~-------1010-|