To Move On Is To Grow chords

We Came As Romans

  			INTRO 
|----------------------------------------------------------------| 
|---6---6---6---6---6---6---6------------------------------------| 
|----------------------------------------------------------------| 
|-55-555-888-888-333-333-333-----5-------8-------3---------------| 
|--------------------------------5-------8-------3---------------| 
|--------------------------------5-------8-------3---------------| 

verse 1 
|-----------------------------------------------------------------| 
|-----6----------------------------------6------------------------| 
|-----------------------------------------------------------------| 
|-----5--------t8t7t10t8t13t12-----------5------------------------| 
|-5555-555-555-----------------------5555-555-555-t6t5t3t5t1t0----| 2X 
|-5555-555-555-----------------------5555-555-555-----------------| 
  .... ... ...                       .... ... ... 
PART 2 
|--------------------------| 
|-----6--------------------| 
|--------------------------| 
|-----5--------------------| 
|-5555-555-5555------------| 4X 
|-5555-555-55558-5-3-55----| 
  .... ... .... 

Repeat the chord progression from the INTRO for the Chorus 

verse 2 
|---------------------------------------------| 
|---------------------------------------------| 
|---------------------------------------------| 
|---------------------------------------------| 
|-----------------------3---------------------| 2X 
|-5-355-55558-5-355-1111-00-00008-5-3-3333-3--| 

|-----------------| 
|-----------------| 
|-----------------| 
|-----------------| 
|-----------------| 
|-5-355-55558555--| 

PART 2 
|---------------------------| 
|---------------------------| 
|---------------------------| 
|---------------------------| 
|-5-355~-5-3-5-8-5-3-5-1~---| 2X 
|-5-355~-5-3-5-8-5-3-5-1~---| 

|------------------------------------| 
|-----------------------------------| 
|-----------------------------------| 
|-----------------------------------| 
|-----------------------------------| 2X 
|-5-355-555-555-5-33-333-0000-08-7--| 

Repeat INTRO 
Repeat verse 1 

|--------------------| 
|--------------------| 
|--------------------| 
|--------------------| 
|--------------------| 2X 
|-03b00-012b00-08b0--| 

|----------------------| 
|----------------------| 
|----------------------| 
|----------------------| 
|-0000-0-0-0000-0-0----| 
|-0000-0-0-0000-0-0----| 
  .... . . .... . . 
|---------------------------| 
|---------------------------| 
|---------------------------| 
|---------------------------| 
|-0000-0-0-0000-0-0-0000-0--| 4X 
|-0000-0-0-0000-0-0-0000-0--| 
  .... . . .... . . .... . 

Pleas comment/rate