Views That Never Cease To Keep Me From Myself chords

We Came As Romans

  			Tuning: Drop C# 

Piano (Clean) 
Guitar 1 (Heavy/Distorted) 
Guitar 2 (Slightly Distorted) 

Piano 
0:00-0:24  
d#|---------------14------14---14------14-------------------| 
A#|---------12--------------------12------12----------------| 
F#|----13--------------------13------13---------------------|  
C#|---------------------------------------------------------| 
G#|-11---11---11--------------------------------------------| 
C#|---------------------------------------------------------| 
                                                               x4 
d#|---------------------------------------------------------| 
A#|---12---11---12---11---12----11----12----11--------------| 
F#|-9----9---------9---------9-----------9------------------| 
C#|---------------------------------------------------------| 
G#|---------------------------------------------------------| 
C#|---------------------------------------------------------| 






Guitar 2 
0:06-0:24 
d#|-------------14h16p11-11-11h12p11------------------------| 
A#|-9--12--(12)------------------------9~~~-----------------| 
F#|---------------------------------------------------------| 
C#|---------------------------------------------------------| 
G#|---------------------------------------------------------| 
C#|---------------------------------------------------------| 

d#|-------------14h16p11-11-11h12p11---11-11-11-11-11-11----| 
A#|-9--12--(12)---------------------------------------------| 
F#|---------------------------------------------------------| 
C#|---------------------------------------------------------| 
G#|---------------------------------------------------------| 
C#|---------------------------------------------------------| 

d#|-19-19-19-19-18-18-18-18-(18)\---------------------------| 
A#|---------------------------------------------------------| 
F#|---------------------------------------------------------| 
C#|---------------------------------------------------------| 
G#|---------------------------------------------------------| 
C#|---------------------------------------------------------| 

d#|-------------14h16p11-11-11h12p11------------------------| 
A#|-9--12--(12)------------------------9~~~-----------------| 
F#|---------------------------------------------------------| 
C#|---------------------------------------------------------| 
G#|---------------------------------------------------------| 
C#|---------------------------------------------------------| 






Guitar 3 
0:24-0:47 
d#|---------------------------------------------------------| 
A#|---------------------------------------------------------| 
F#|---------------------------------------------------------| x4 
C#|-6-6-6-6--6-6-6-6-6--6-6-6-------2-2--2-2--2-2--2-2-/----| 
G#|-6-6-6-6--6-6-6-6-6--6-6-6-------2-2--2-2--2-2--2-2-/----| 
C#|-6-6-6-6--6-6-6-6-6--6-6-6-------2-2--2-2--2-2--2-2-/----| 







Guitar 3 
0:47- 
d#|---------------------*~~~--------------------------------| 
A#|---------------------*~~~--------------------------------| 
F#|---------------------*~~~--------------------------------| 
C#|-6-6-6-6--6-6-6-6---*~~~---2-2-2-2--2-2-2-2--1-1---------| 
G#|-6-6-6-6--6-6-6-6---*~~~---2-2-2-2--2-2-2-2--1-1---------| 
C#|-6-6-6-6--6-6-6-6-6-*~~~---2-2-2-2--2-2-2-2--1-1---------|