What My Heart Held chords

We Came As Romans

Key: 

  			

Tuning (dropped D): D A D G B E 
Guitar 1 - lead 
Guitar 2 - rhythm 

If you notice anything wrong or just want to comment, email 
me at [email protected] or message me through my U-G account 

Have Fun! 

Intro 
(0:00-0:17) 
Guitar 1 only 
E|----------------------------------------| 
B|----------------------------------------| 
G|----------------------------------(x5)--| 
D|---------------10-------10--------------| 
A|--5/7\5--7h8p7----8-7-8----8-7-8--------| 
D|----------------------------------------| 


verse 1 
(0:17-0:30) 
"I feel like I'm stuck in this routine" 
 Guitar 1 
E|----------------------------------------------------| 
B|----------------------------------------------(x4)--| 
G|---------------------17----------17-----------------| 
D|--12/14\12--14h15p14----15-14-15----15-14-15--------| 
A|----------------------------------------------------| 
D|----------------------------------------------------| 

 Guitar 2 
E|-----------| 
B|-----------| It's all open 
G|-----------| chugging right 
D|--0--------| here so I won't 
A|--0--------| tab out each strum 
D|--0--------| 
    * 

PreChorus pt 1 
(0:30-0:45) 
Repeat the whole thing FOUR times 
Guitar 1 
E|--------------------------------------------------| 
B|-------------------------------------------10-----| 
G|---------------------12/14--10/12--10-9-10--------| 
D|------------------12--------------------------8~--| 
A|--------------------------------------------------| 
D|--------------------------------------------------| 

Guitar 2 
E|---------------------------------------------| 
B|---------------------------------------------| 
G|---------------------------------------------| 
D|---------------------------------------------| 
A|------0---1----------------------------------| 
D|--0-3---0---3-0~-----------------------------| 


PreChorus pt 2 
(0:45-0:59) 
BOTH Guitars 
E|----------------------------------| 
B|----------------------------------| 
G|----------------------------------| 
D|----------------------------------| 
A|------0---1------------------0----| 
D|--0-3---0---3-000---00-0-0-3---0--| 

E|----------------------------------| 
B|----------------------------------| 
G|----------------------------------| 
D|----------------------------------| 
A|------0---1----------------1------| 
D|--0-3---0---3-000---00-0-0---3-0--| 


Chorus 
(0:59-1:27) 
Guitar 1 
E|----------------------------------------------------| 
B|----------------------------------------------(x8)--| 
G|---------------------17----------17-----------------| 
D|--12/14\12--14h15p14----15-14-15----15-14-15--------| 
A|----------------------------------------------------| 
D|----------------------------------------------------| 

Guitar 2 
E|------------------------| Again, these are the 
B|------------------(x2)--| chords, they're just 
G|------------------------| chugged in that 
D|--0---0---8---10--------| order, you can figure 
A|--0---0---8---10--------| out the strumming 
D|--0---0---8---10--------| 
    *   *   *   * 

PostChorus 
(1:27-1:41) 
BOTH Guitars 
E|-------------| All open D, again 
B|-------------| you can do the 
G|-------------| strumming 
D|--------0----| 
A|--------0----| 
D|--0-----0----| 
          * 

verse 2 
(1:41-1:54) 
Guitar 1 
E|-------------------------------------------------------| 
B|-------------------------------------------------(x2)--| 
G|-------------------------------------------------------| 
D|-------------10--------------------10------------------| 
A|--000--8--0------000----000--8--0------0--7h8p7--------| 
D|--000-----0------000----000-----0------0---------------| 
    ***     *      ***    ***     *      * 
Guitar 2 
E|-----------------------------------------------------| 
B|-----------------------------------------------(x2)--| 
G|-----------------------------------------------------| 
D|-------------7--------------------7------------------| 
A|--000--5--0-----000----000--5--0-----0--3h5p3--------| 
D|--000-----0-----000----000-----0-----0---------------| 


PreChorus pt 1 
(1:54-2:09) 
Both guitars repeat their riffs from 0:30-0:45 


PreChorus pt 2 
(2:10-2:22) 


(2:22-2:50) 
Guitar 1 only 
E|----------------------------------------| 
B|----------------------------------------| 
G|----------------------------------(x?)--| 
D|---------------10-------10--------------| 
A|--5/7\5--7h8p7----8-7-8----8-7-8--------| 
D|----------------------------------------| 


Chorus 
(2:50-3:44) 

"I just want to feel something. I just want to feel something new." 

*=palm mute 
/=slide up 
\=slide down 
~=hold note 
(nh)=harmonic 
(ph)=pinch 
h=hammer on 
p=pull off 
b=bend