Transitions chords

Ween

Key: 

  			Intro: 
e:----------------------------------------15---------------| 
B:----------------------------12---------------------------| 
G:-------------------------------12~-14b15--12h14-12-------| 
D:-14h15-14b15r14-12-14~-12-14-----------------------14-12-| 
A:---------------------------------------------------------| 
E:---------------------------------------------------------| 

e:---------------------------------------------------------| 
B:----------------------------------------15---------------| 
G:----------------------------14-12~-14b15--12h14----------| 
D:-14h15-14b15r14-12-14~-12-14--------------------14-12----| 
A:---------------------------------------------------------| 
E:---------------------------------------------------------| 

Verse chords: 
Bb Am G with Am Bb 
e:--------------------------------------------------| 
B:-----6--6-------5--5-------3--3------3--3--5------| 
G:-7---7--7---5---5--5---4---4--4---4--4--4--5-(7)--| 
D:-8---8--8---7---7--7---5---5--5---5--5--5--7-(8)--| 
A:-8----------7----------5----------5-----5--7-(8)--| 
E:--------------------------------------------------| 


Chorus ("And he says..."): 
   G  Am Bm C   F  G  D     D  F 
e:-----------------------------1--| 
B:-----------------------------1--| 
G:-4--5--7--9---7--5--4-----4--2--| 
D:-5--7--9--10--9--7--5--0--5--3--| 
A:-5--7--9--10--9--7--5-----5--3--| 
E:--------------------------------| 


Chorus 1 Fills : 
e:--13p12-13--15--17--18--17--15--13--12-13p12--| 
B:----------------------------------------------| 
G:----------------------------------------------| 
D:----------------------------------------------| 
A:----------------------------------------------| 
E:----------------------------------------------| 

e:--12---------------| 
B:--13--13-----------| 
G:---------14--------| 
D:------------15-----| 
A:---------------15--| 
E:-------------------| 

e:-12--13--15s/17--15--13--12--10--12h13p12-10-| 
B:-13------------------------------------------| 
G:---------------------------------------------| 
D:---------------------------------------------| 
A:---------------------------------------------| 
E:---------------------------------------------| 


verse 2 Fills: 
e:---------15------------15--------------15-----| 
B:------------15------------15------------------| 
G:---14b16---------14b16---------14b16----------| 
D:----------------------------------------------| 
A:----------------------------------------------| 
E:----------------------------------------------| 

e:---17b18r17-17b18r17-17b18r17---17b18r17--15~--| 
B:-----------------------------------------------| 
e:-----------------------------------------------| 
B:-----------------------------------------------| 
G:----14b15r14~~~--------12----------------------| 
D:------------------14---------------------------| 

e:-----10h12-12p10-------------| 
B:--12----------------12-------| 
G:-----------------------------| 
D:-----------------------------| 
A:-----------------------------| 
E:-----------------------------| 


Chorus ("And he says..."): 
e:-----------------------------1--| 
B:-----------------------------1--| 
G:-4--5--7--9---7--5--4-----4--2--| 
D:-5--7--9--10--9--7--5--0--5--3--| 
A:-5--7--9--10--9--7--5-----5--3--| 
E:--------------------------------| 


Chorus 2 Fills: 
e:--13-12-13----------------------| 
B:------------13-12-13--11-10-11--| 
G:--------------------------------| 
D:--------------------------------| 
A:--------------------------------| 
E:--------------------------------| 

e:----------------------------12-----| 
B:----------------------13-15----13--| 
G:----------------12-14--------------| 
D:----------14-15--------------------| 
A:----12-15--------------------------| 
E:--13-------------------------------| 

e:-15-13-15-13-------------------------------------------------------------| 
B:-------------15-13-15-13-------------------------------------------------| 
G:-------------------------15-14-15-14-------------------------------------| 
D:-------------------------------------15-14-15-14-15-14-------------------| 
A:-------------------------------------------------------15-13-12----12----| 
E:----------------------------------------------------------------13---13--| 


Solo: 
e:-------------------------------------12h15p12--------------------------------------------| 
B:------------------------------12---------------12h15p12----------------------------------| 
G:---------------------------------12~~--------------------12h14p12------------------------| 
D:-14h15-14b15r14-12-14~~-12-14--------------------------------------14h15-14b15r14-12-14~-| 
A:-----------------------------------------------------------------------------------------| 
E:-----------------------------------------------------------------------------------------| 

e:---------------------------------------------------| 
B:-------12------------------------------------------| 
G:-12-14----12~~--12h14p12------------------------12-| 
D:--------------------------12h14p12-----------------| 
A:------------------------------------12h14p12p10----| 
E:---------------------------------------------------| 

e:-14h15-15--14h15-15--14h15-14-15-14h15-15--14h15-15-| 
B:----------------------------------------------------| 
G:----------------------------------------------------| 
D:----------------------------------------------------| 
A:----------------------------------------------------| 
E:----------------------------------------------------| 

e:-14h15-17-15-14-15-14-------------------------------| 
B:----------------------17-15-17-15-12h15-15-12h15-15-| 
G:----------------------------------------------------| 
D:----------------------------------------------------| 
A:----------------------------------------------------| 
E:----------------------------------------------------| 

e:----------12----------12-----------------------| 
B:-12-13-15----12-13-15----12-13-15-13-12--------| 
G:----------------------------------------14-12--| 
D:-----------------------------------------------| 
A:-----------------------------------------------| 
E:-----------------------------------------------| 

e:----------------------------------------------------------------------------------------------| 
B:----------------------------------------------------------------------------------------------| 
G:---14-12------------14-12------------14-15-14------------14-15-17-15-14-----------------------| 
D:-14-----14-12-14~-14-----14-12-14~-14--------15-----15-17--------------15--------14-15-14-----| 
A:-----------------------------------------------15-17---------------------15-12-15-------------| 
E:----------------------------------------------------------------------------------------------| 

e:----------------------------------| 
B:----------------------------------| 
G:----------------------------------| 
D:----------------------------------| 
A:-15-14-12-11h12-----12h13-12------| 
E:-----------------13---------------| 

e:----------------------------12--------15b17--15b17--15b17--15b17-15-13--17b18--17--15----| 
B:----------------------13-15----15-13-----------------------------------------------------| 
G:----------------12-14--------------------------------------------------------------------| 
D:----------14-15--------------------------------------------------------------------------| 
A:----12-15--------------------------------------------------------------------------------| 
E:-13--------------------------------------------------------------------------------------| 


verse 3: 
e:--------------------------------------------------| 
B:-----6--6-------5--5-------3--3------3--3--5------| 
G:-7---7--7---5---5--5---4---4--4---4--4--4--5-(7)--| 
D:-8---8--8---7---7--7---5---5--5---5--5--5--7-(8)--| 
A:-8----------7----------5----------5-----5--7-(8)--| 
E:--------------------------------------------------| 


End: 
   Bb         Am                                    G 
e:--------------------------------------------------------| 
B:-6----------5----------------------12-------------12\---| 
G:-7----------5------------------12------12---------12\---| 
D:-8----------7--------------12-------------12------12\---| 
A:-8----------7-------------------------------------10\---| 
E:-6----------5-------------------------------------------|