Surprise Honeycomb chords

Wrens

  			====Surprise, Honeycomb==== 

For this song you're gonna want to kick your treble up and maybe switch to the bridge pickup 

==Introduction part 1== 

=Main riff= 

E|------|  |------|  |------|  |------| 
B|-9-12-|x4|-7-12-|x4|-7-10-|x4|-5-10-|x4 
G|------|  |------|  |------|  |------| 
D|------|  |------|  |------|  |------| 
A|------|  |------|  |------|  |------| 
E|------|  |------|  |------|  |------| 

Tap the lowest notes with your left hand and the highest ones with your right (I find  
this way the closest 
sounding) 

OR 

E|---7-|  |---7-|  |---5-|  |---5-| 
B|-9---|x4|-7---|x4|-7---|x4|-5---|x4 
G|-----|  |-----|  |-----|  |-----| 
D|-----|  |-----|  |-----|  |-----| 
A|-----|  |-----|  |-----|  |-----| 
E|-----|  |-----|  |-----|  |-----| 

==Introduction part 2== 

=Guitar 1= 

E|-------------------| 
B|-------------------| 
G|-9~--------7~------| 
D|-9~---9~---7~---7~-| 
A|-7~---9~---5~---7~-| 
E|------7~--------5~-| 

=Guitar 2= 

E|----------------------------------| 
B|----------------------------------| 
G|----------------------------------| 
D|-6-6-4-4-2-2-4-4--6-6-4-4-2-2-4-4-| 
A|----------------------------------| 
E|----------------------------------| 

E|----------------------------------| 
B|----------------------------------| 
G|----------------------------------| 
D|-7-7-5-5-4-4-5-5--7-7-5-5-4-4-5-5-| 
A|----------------------------------| 
E|----------------------------------| 

E|----------------------------------| 
B|----------------------------------| 
G|----------------------------------| 
D|-9-9-7-7-6-6-7-7--9-9-7-7-6-6-7-7-| 
A|----------------------------------| 
E|----------------------------------| 

E|-----------------------------| 
B|-----------------------------| 
G|-----------------------------| 
D|-7-7-5-5-4-4-5-5--7-7-5-5-4~-| 
A|-----------------------------| 
E|-----------------------------| 

==Verse Part 1== 

=Guitar 1= 

E|--7--|  |--7--|  |--5--|  |--5--| 
B|--9--|x4|--7--|x4|--7--|x4|--5--|x2 
G|--9--|  |--7--|  |--7--|  |--6--| 
D|-(9)-|  |-(9)-|  |-(7)-|  |-(7)-| 
A|-(7)-|  |-(9)-|  |-(5)-|  |-(7)-| 
E|-----|  |-(7)-|  |-----|  |-(5)-| 

E|-----5-5-| 
B|-----5-5-| 
G|-666-6-6-| 
D|-777-----| 
A|---------| 
E|---------| 

=Guitar 2= 

E|----------------------------------| 
B|----------------------------------| 
G|----------------------------------| 
D|-9-9-7-7-6-6-7-7--9-9-7-7-6-6-7-7-| 
A|----------------------------------| 
E|----------------------------------| 

E|----------------------------------| 
B|----------------------------------| 
G|----------------------------------| 
D|-7-7-5-5-4-4-5-5--7-7-5-5-4-4-5-5-| 
A|----------------------------------| 
E|----------------------------------| 

E|-----------------------------| 
B|-----------------------------| 
G|-----------------------------| 
D|-7-7-5-5-4-4-5-5--7-7-5-5-4~-| 
A|-----------------------------| 
E|-----------------------------| 

==Verse Part 2== 

=Guitar 1= 

E|-777-|  |-101010--101010-|  |-101010-|  |-7-7-7--| 
B|-999-|x4|-121212--141414-|x2|-141414-|x2|-101010-|x4 
G|-----|  |----------------|  |--------|  |--------| 
D|-----|  |----------------|  |--------|  |--------| 
A|-----|  |----------------|  |--------|  |--------| 
E|-----|  |----------------|  |--------|  |--------| 

==Pre-Chorus== 

=Guitar 1= 

E|--12--|   |--12--| 
B|--15--|x16|--16--|x16 
G|------|   |------| 
D|------|   |------| 
A|------|   |------| 
E|------|   |------| 

==Chorus== 

E|-----|   |-----|   |-----|   |-----| 
B|-----|x16|-----|x16|-----|x16|-----|x16 
G|--9--|   |-----|   |--7--|   |-----| 
D|--9--|   |--9--|   |--7--|   |--7--| 
A|--7--|   |--9--|   |--5--|   |--7--| 
E|-----|   |--7--|   |-----|   |--5--| 

==Bridge== 

=Part A= 

E|-----|  |-----|  |-----| 
B|-----|x8|-----|x4|-----|x4 
G|--6--|  |--9--|  |--7--| 
D|--6--|  |- 9--|  |--7--| 
A|--4--|  |--7--|  |--5--| 
E|-----|  |-----|  |-----| 

=Part B= 

E|-----|  |-----|  |-----| 
B|-----|x8|-----|x4|-----|x4 
G|--6--|  |--7--|  |--6--| 
D|--6--|  |- 7--|  |--6--| 
A|--4--|  |--5--|  |--4--| 
E|-----|  |-----|  |-----| 

=Part C= 

E|-----| 
B|-----| 
G|--6~-| 
D|--7~-| 
A|--7~-| 
E|--5~-| 

==Quiet Part== 

E|-0-----0~---0---0---0---0---0---0----0-----0-| 
B|---4------3---3---2---2-----------4br---4br--| 
G|-----4--------------------2---2--------------| 
D|---------------------------------------------| 
A|---------------------------------------------| 
E|---------------------------------------------| 

==Fills== 

=Fill 1= 

E|----16----16--16~-| 
B|-19----19-----17~-| 
G|------------------| 
D|------------------| 
A|------------------| 
E|------------------| 

=Fill 2= 

E|-------------------------| 
B|-------------------------| 
G|-11-12-11-12-11-12-11-12-| 
D|-------------------------| 
A|-------------------------| 
E|-------------------------| 

====Structure==== 

Introduction -with fill 1 
Verse 
Introduction - only part 1 
Verse - only guitar 1 
Pre-Chorus 
Chorus 
Verse 
Pre-Chorus 
Chorus 
Bridge 
Quiet part 
Chorus x2 
Introduction 

====Key==== 

 ~ - sustain 
() - hit lightly 

|x4| - repeat bar 4 etc. times 

====Credits==== 

.Tabbed by Patrick Johnston 

All corrections welcomed! Want this to be as close as possible 
    	

Top songs from Wrens