Sad Song chords

Yu Yu Hakusho

Key: 

  			 

        Am7    G     F7    Am7 
------------------------------------ 
-----3--1------0------1-0-1------1-- 
-0/2--------0--0---0--2-0-0----0---- 
----------2------0-----------2------ 
--------0-----------------0--------- 
---------------3------1------------- 

       Dm       C           Dm      
-----3--1------0-----------1-----1-- /  -----1---5-     
-3/5----3---3--1---1--3-1--3---3---- /  ---3---3--- 
----------2------0-----------2------ /  -2--------- 
--------0------------------0-------- /  ----------- 
---------------3-------------------- /  ----------- 
------------------------------------ /  ----------- 

        Gm7      C      Am7              B         Am 
--------1---1---3---0-----------0---------------------- 
---3-5--3-----3-1-----3-1---1-------1---3-3-3-1-0-1---- 
-2------3-3-----0-0-------0---0---0---0-3-3-3-----2---- 
------------------------------------------------------- 
----------------3-------0---------------1---1-----0---- 
--------3---------------------------------------------- 

Final 

        Am7     G      F7  Am7 
-------------------------------- 
-----3--1------0------1-0-1----- 
-0/2--------0--0---0--2-0-0----- 
----------2------0-------------- 
--------0-----------------0----- 
---------------3------1---------