Diz Que Me Ama chords

André Lelis

Key: 

  			(intro)   F#  D#m  B  C# 

E|-----------------------------------------9-7-6-----------------| 
B|-7-7-6-7-9-7-6---7-7-6-7-9-7-6-----------------9--9-11-9-11-9--| 
G|---------------8---------------8-8---8-8-----------------------| 
D|---------------------------------------------------------------| 
A|---------------------------------------------------------------| 
E|---------------------------------------------------------------| 

E|-----------------------------------------9-7-6---------9-11-9--| 
B|-7-7-6-7-9-7-6---7-7-6-7-9-7-6-----------------9--9-11---------| 
G|---------------8---------------8-8---8-8-----------------------| 
D|---------------------------------------------------------------| 
A|---------------------------------------------------------------| 
E|---------------------------------------------------------------| 

F# 
Quanto tempo estou longe de você 
            Bbm 
Quanto tempo ainda tenho pra te ver 
      B 
Você é minha vida 
        G#m 
Sem você não há saída 
       C# 
nem luz pra se ver. 

F# 
A saudade bate forte é pra valer 
           Bbm 
Nem os anjos podem me compreender 
        B 
Falta chão na minha estrada 
         G#m 
não há luz na madrugada 
        C# 
nem sol pra nascer. 

           B                 C# 
Quantas luas eu ainda vou ter que esperar 
          A#m                D# 
Quantos sonhos eu vou ter que me lembrar 
        B 
Só me resta um verão 
     G#m 
o acorde da canção 
          C# 
pra você me escutar. 

           B          C# 
Quero ter você pra mim 
              A#m             D# 
a mais bela flor do meu jardim 
          B               G#m 
Diz que me ama, que me quer 
            D# 
que é bom demais 
            B         C# 
Quero o seu amor assim 
          A#m             D# 
me faz navegar no mar sem fim 
          B               G#m 
Diz que me ama, que me quer 
            D# 
que é bom demais...