Beso En La Boca chords

Axé Bahia

  			ESTE ES EL INTRO DE LA ROLA Y LES ASEGURO 
ESTA MUY BIEN SACADO  
      

INTRO 
E|------------------------- 
B|------------------------- 
G|-5-5-5-5-1--------3-3-3-5 
D|----------3-6-6--6-6----- 
A|-------------------------- 
E|------------------------- 

E|------------------------- 
B|------------------------- 
G|-5-5-5-5-1--------3------ 
D|----------3-6-6--6-6-6-3-3 
A|-------------------------- 
E|------------------------- 

 beso en la boca es cosa del pasado 
E|------------------------- 
B|------------------------- 
G|-5-5-5-5-1--------3-3-3-5 
D|----------3-6-6--6-6----- 
A|-------------------------- 
E|------------------------- 
 la moda ahora es enamorate a lado 
E|------------------------- 
B|------------------------- 
G|-5-5-5-5-1--------3------ 
D|----------3-6-6--6-6-6-3-3 
A|-------------------------- 
E|------------------------- 


 beso en la boca es cosa del pasado 
E|------------------------- 
B|------------------------- 
G|-5-5-5-5-1--------3-3-3-5 
D|----------3-6-6--6-6----- 
A|-------------------------- 
E|------------------------- 
 la moda ahora es enamorate a lado 
E|------------------------- 
B|------------------------- 
G|-5-5-5-5-1--------3------ 
D|----------3-6-6--6-6-6-3-3 
A|-------------------------- 
E|------------------------- 


las manos hacia arriba bate palmas sin parar 
E|------------------------- 
B|------------------------- 
G|-5-5-5--1-----------3-3-3-5 
D|----------3-6-6--6-6---6-- 
A|-------------------------- 
E|------------------------- 

moviendo todo el cuerpo y comienzas a bajar 
E|------------------------- 
B|------------------------- 
G|-5-5-5--1-----------3-3-3-5 
D|----------3-6-6--6-6---6-- 
A|-------------------------- 
E|------------------------- 



las manos hacia arriba bate palmas sin parar 
E|------------------------- 
B|------------------------- 
G|-5-5-5--1-----------3-3-3-5 
D|----------3-6-6--6-6---6-- 
A|-------------------------- 
E|------------------------- 

moviendo todo el cuerpo y comienzas a bajar 
E|------------------------- 
B|------------------------- 
G|-5-5-5--1-----------3-3-3-5 
D|----------3-6-6--6-6---6-- 
A|-------------------------- 
E|------------------------- 


bueno eso es todo esa podria tambien servir  
de base pa' sacar toda la cancion completa 
algunas recomendaciones o cualquiercosa favor  
de escribirme a mi mail. 
 ah y un saludo pa' los cuzcos de los girasoles 
18 1/2 sur de Delicias Chihuahua Mex. 

                M.A.P.G