Ya Nada Es Igual chords

Genitalica

Key: 

Simplify chords 

Try Fender Play free for 14 days

  			........Intro 
    A                       B                 D 
e|-----------0-------0--------------2-----------------2------| 
B|-------2-----2-----2----------4------4-----------3-----3---| 
G|-----2---2-----2---2--------4----------4-------2--------2--| 
D|-------------------2---------------------------0-----------| 
A|---0----------------------1--------------------------------| 
E|-----------------------------------------------------------| 
 AQUI TAMBIEN PUEDEN TOCAR EL INTRO JUNTO KON EL VERSO 
 A                         E 
Ahora te das cuenta que nunca te lo perdonaras 
       B                    D 
hay cosas en la vida que jamas podras cambiar 
        A  
si te fuiste fue por que quisiste 
           E 
lo que querias ya lo conseguiste 
           B 
nunca vuelvas a mi lado 
       D 
tu lugar ya esta ocupado 

       A            E 
Si te vas ya lo veras 
             B 
te arrepentiras 
             D                  A  
y no encotraras a nadie igual 
       E            D 
si te vas ya lo veras 
            D 
no encotraras a nadie igual 

A5         E5          B5           D5 
     por que te alejaste ya es muy tarde 
                   A5 
     ya nada es igual 
           E5         B5            D5 
     por que me dejaste ya es muy tarde 
                   A5 
     ya nada es igual 
           E5         B5         D5 
     por que regresaste la cagaste te chingaste 
                   A  
     ya nada es igual 
SE REPITE EL INTRO X1 

aqui tienes otra vez diciendome que lo as pensado 
y que lo que tuvimos juntos no devio de aver cambiado 
no te niego que pasamos buenos ratos 
fueron muchos moteles varatos 
no te aferres al pasado 
ya verdad yo nunca estuve enamorado 

Si te vas ya lo veras 
te arrepentiras 
y no encotraras a nadie igual 
si te vas ya lo veras 
no encotraras a nadie igual 

*CORO* 
por que te alejaste ya es muy tarde 
ya nada es igual 
por que me dejaste ya es muy tarde 
ya nada es igual 
por que regresaste la cagaste te chingaste 
ya nada es igual 

SOLO: 

e|-------------------------------------------------------------| 
B|-------------------------------------------------------------| 
G|-------------------------------------------------14-14-14----| 
D|-14-12-11-12-11--------14-14--12-11-12-11-----14----------14-| 
A|----------------12-------------------------12----------------| 
E|-------------------------------------------------------------| 

e|-------------------------------------------------------------| 
B|----------------12-14-15-17----------------------------------| 
G|-------------14-------------14-9-----------------------------| 
D|-12-11-12-14---------------------11----12-12----11---9-------| 
A|------------------------------------11-------11----11--------| 
E|-------------------------------------------------------------| 

e|------------------------------------------------------10-12-| 
B|----------------------------------------------------14------| 
G|--------------------------------------------11-13-14--------| 
D|----------11-12-14-----11-12-14-----11-12-14----------------| 
A|-----12-14--------12-14--------12-14------------------------| 
E|------------------------------------------------------------| 
    	

Top songs from Genitalica