Hiway Nights chords

Great White

Key: 

Simplify chords 

Try Fender Play free for 14 days

  			     W                   W                   W                  
G||-------------------|-------------------|-------------------| 
D||-------------------|-------------------|-------------------| 
A||-------------------|-------------------|-------------------| 
E||-------------------|-------------------|-------------------| 


  W                   S S S S S S S S S S S S S S S S   
-------------------|--5-----5-----5-----5-----5-------| 
-------------------|----5-7---5-7---5-7---5-7---7-6-5-| 
-------------------|----------------------------------| 
-------------------|----------------------------------| 


  E  E  E  E  E  E  E  E     E  E  E  E  E  E  E  E    
--------------------------|--------------------------| 
--------------------------|--------------------------| 
--5--5--5--5--5--5--5--5--|--5--5--5--5--5--5--5--5--| 
--------------------------|--------------------------| 


  E  E  E  E  E  E  E  E     E  E  E  E  E  E  E  E    
--------------------------|--------------------------| 
--------------------------|--------------------------| 
--5--5--5--5--5--5--5--5--|--5--5--5--5--5--5--5--5--| 
--------------------------|--------------------------| 


  E  E  E  E  E  E  E  E     E  E  E  E  E  E  E  E    
--------------------------|--------------------------| 
--------------------------|--------------------------| 
--5--5--5--5--5--5--5--5--|--5--5--5--5--5--5--5--5--| 
--------------------------|--------------------------| 


  E  E  E  E  E  E  E  E     S S S S S S S S S S S S S S S S   
--------------------------|--5-----5-----5---5---------------| 
--------------------------|----5-7---5-7---7---7-6-5-7-6-5-3-| 
--5--5--5--5--5--5--5--5--|----------------------------------| 
--------------------------|----------------------------------| 


  E  E  E  E  E  E  E  E     E  E  E  E  E  E  E  E    
--------------------------|--------------------------| 
--------------------------|--------------------------| 
--5--5--5--5--5--5--5--5--|--5--5--5--5--5--5--5--5--| 
--------------------------|--------------------------| 


  E  E  E  E  E  E  E  E     E  E  E  E  E  E  E  E    
--------------------------|--------------------------| 
--------------------------|--------------------------| 
--5--5--5--5--5--5--5--5--|--5--5--5--5--5--5--5--5--| 
--------------------------|--------------------------| 


  E  E  E  E  E  E  E  E     E  E  E  E  E  E  E  E    
--------------------------|--------------------------| 
--------------------------|--------------------------| 
--5--5--5--5--5--5--5--5--|--5--5--5--5--5--5--5--5--| 
--------------------------|--------------------------| 


  E  E  E  E  E  E  E  E     E  E  E  E  E  E  E  E    
--------------------------|--------------------------| 
--------------------------|--------------------------| 
--5--5--5--5--5--5--5--5--|--5--5--5--5--5--5--5--5--| 
--------------------------|--------------------------| 


  E  E  E  E  E  E  E  E     E  E  E  E  E  E  E  E    
--------------------------|--------------------------| 
--------------------------|--------------------------| 
--5--5--5--5--5--5--5--5--|--5--5--5--5--5--5--5--5--| 
--------------------------|--------------------------| 


  E  E  E  E  E  E  E  E     E  E  E  E  E  E  E  E    
--------------------------|--------------------------| 
--------------------------|--------------------------| 
--5--5--5--5--5--5--5--5--|--5--5--5--5--5--5--5--5--| 
--------------------------|--------------------------| 


  E  E  E  E  E  E  E  E     E  E  E  E  E  E  E  E    
--------------------------|--------------------------| 
--------------------------|--------------------------| 
--5--5--5--5--5--5--5--5--|--5--5--5--5--5--5--5--5--| 
--------------------------|--------------------------| 


  E  E  E  E  E  E  E  E     E  E  E  E  E  E  E  E    
--------------------------|--------------------------| 
--------------------------|--------------------------| 
--5--5--5--5--5--5--5--5--|--5--5--5--5--5--5--5--5--| 
--------------------------|--------------------------| 


  E  E  E  E  E  E  E  E     E  E  E  E  E  E  E  E    
--------------------------|--------------------------| 
--------------------------|--------------------------| 
--5--5--5--5--5--5--5--5--|--5--5--5--5--5--5--5--5--| 
--------------------------|--------------------------| 


  E  E  E  E  E  E  E  E     E  E  E  E  E  E  E  E    
--------------------------|--------------------------| 
--------------------------|--------------------------| 
--5--5--5--5--5--5--5--5--|--5--5--5--5--5--5--5--5--| 
--------------------------|--------------------------| 


  E  E  E  E  E  E  E  E     E  E  E  E  E  E  E  E    
--------------------------|--------------------------| 
--------------------------|--------------------------| 
--5--5--5--5--5--5--5--5--|--5--5--5--5--5--5--5--5--| 
--------------------------|--------------------------| 


  E  E  E  E  E  E  E  E     S  S E  E  S  S E  E  S  S E    
--------------------------|--------------------------------| 
--------------------------|--5h-7-------5h-7-------5h-7----| 
--5--5--5--5--5--5--5--5--|-------5--5-------5--5-------5--| 
--------------------------|--------------------------------| 


  E  E  E  E  E  E  E  E     E  E  E  E  E  E  E  S S   
--------------------------|---------------------------| 
--------------------------|---------------------------| 
--3--3--3--3--3--3--3--3--|-----------------------0-2-| 
--------------------------|--3--3--3--3--3--3--3------| 


  E  E  E  E  E  E  E  S S    E  E  E  E  E  S S S S S S   
---------------------------|-----------------------------| 
---------------------------|-----------------------------| 
--3--3--3--3--3--3--3--3-0-|-------------------3-5---3-5-| 
---------------------------|--3--3--3--3--3--3-----5-----| 


  E  E  E  E  E  E  E  E     E  E  E  E  E  E  E  E    
--------------------------|--------------------------| 
--------------------------|--------------------------| 
--5--5--5--5--5--5--5--5--|--5--5--5--5--5--5--5--5--| 
--------------------------|--------------------------| 


  E  E  E  E  E  E  E  E     S S S S S S S S S S S S S S E    
--------------------------|---------------------------------| 
--------------------------|---------------------------------| 
--5--5--5--5--5--5--5--5--|--5-5-5-3-3-3--------------------| 
--------------------------|--------------5-5-5-4-4-4-3-3-1--| 


  E  E  E  E  E  E  E  E     E  E  E  E  E  E  E  E    
--------------------------|--------------------------| 
--------------------------|--------------------------| 
--5--5--5--5--5--5--5--5--|--5--5--5--5--5--5--5--5--| 
--------------------------|--------------------------| 


  E  E  E  E  E  E  E  E     E  E  E  E  E  E  E  E    
--------------------------|--------------------------| 
--------------------------|--------------------------| 
--5--5--5--5--5--5--5--5--|--5--5--5--5--5--5--5--5--| 
--------------------------|--------------------------| 


  E  E  E  E  E  E  E  E     E  E  E  E  E  E  E  E    
--------------------------|--------------------------| 
--------------------------|--------------------------| 
--5--5--5--5--5--5--5--5--|--5--5--5--5--5--5--5--5--| 
--------------------------|--------------------------| 


  E  E  E  E  E  E  E  E     S  S E  E  S  S E  E  S  S E    
--------------------------|--------------------------------| 
--------------------------|--5h-7-------5h-7-------5h-7----| 
--5--5--5--5--5--5--5--5--|-------5--5-------5--5-------5--| 
--------------------------|--------------------------------| 


  E  E  E  E  E  E  E  E     E  E  E  E  E  E  E  S S   
--------------------------|---------------------------| 
--------------------------|---------------------------| 
--3--3--3--3--3--3--3--3--|-----------------------0-2-| 
--------------------------|--3--3--3--3--3--3--3------| 


  E  E  E  E  E  E  E  S S    E  E  E  E  E  E  E  E    
---------------------------|--------------------------| 
---------------------------|--------------------------| 
--3--3--3--3--3--3--3--3-0-|--------------------------| 
---------------------------|--3--3--3--3--3--3--3--3--| 


  E  E  E  E  E  E  E  S S    E  E  E  E  E  E  E  E    
---------------------------|--------------------------| 
---------------------------|--------------------------| 
--5--5--5--5--5--5--5--3-1-|--1--1--1--1--1--1--1--1--| 
---------------------------|--------------------------| 


  E  E  E  E  E  E  E  E     E  E  E  E  E  E  E  E    
--------------------------|--------------------------| 
--------------------------|--------------------------| 
--------------------------|--3--3--3--3--3--3--3--3--| 
--3--3--3--3--3--3--3--3--|--------------------------| 


  E  E  E  E  E  E  E  S S    E  E  E  E  E  E  E  S S   
---------------------------|---------------------------| 
---------------------------|---------------------------| 
--5--5--5--5--5--5--5--3-1-|--1--1--1--1--1--1--1--1---| 
---------------------------|-------------------------3-| 


  E  E  E  E  E  E  E  E     E  E  E  E  E  E  E  E    
--------------------------|--------------------------| 
--------------------------|--------------------------| 
--------------------------|--3--3--3--3--3--3--3--3--| 
--3--3--3--3--3--3--3--3--|--------------------------| 


  E  E  E  E  E  E  E  E     E  E  E  E  E  E  E  E    
--------------------------|--------------------------| 
--------------------------|--------------------------| 
--5--5--5--5--5--5--5--5--|--5--5--5--5--5--5--5--5--| 
--------------------------|--------------------------| 


  E  E  E  E  E  E  E  E     E  E  E  E  E  E  E  E    
--------------------------|--------------------------| 
--------------------------|--------------------------| 
--5--5--5--5--5--5--5--5--|--5--5--5--5--5--5--5--5--| 
--------------------------|--------------------------| 


  E  E  E  E  E  E  E  E     E  E  E  E  E  E  E  E    
--------------------------|--------------------------| 
--------------------------|--------------------------| 
--5--5--5--5--5--5--5--5--|--5--5--5--5--5--5--5--5--| 
--------------------------|--------------------------| 


  E  E  E  E  E  E  E  E     E  E  E  E  E  E  E  E    
--------------------------|--------------------------| 
--------------------------|--------------------------| 
--5--5--5--5--5--5--5--5--|--5--5--5--5--5--5--5--5--| 
--------------------------|--------------------------| 


  E  E  E  E  E  E  E  E     E  E  E  E  E  E  E  E    
--------------------------|--------------------------| 
--------------------------|--------------------------| 
--5--5--5--5--5--5--5--5--|--5--5--5--5--5--5--5--5--| 
--------------------------|--------------------------| 


  E  E  E  E  E  E  E  E     S  S E  E  S  S E  E  S  S E    
--------------------------|--------------------------------| 
--------------------------|--5h-7-------5h-7-------5h-7----| 
--5--5--5--5--5--5--5--5--|-------5--5-------5--5-------5--| 
--------------------------|--------------------------------| 


  E  E  E  E  E  E  E  E     E  E  E  E  E  E  E  S S   
--------------------------|---------------------------| 
--------------------------|---------------------------| 
--3--3--3--3--3--3--3--3--|-----------------------0-2-| 
--------------------------|--3--3--3--3--3--3--3------| 


  E  E  E  E  E  E  E  S S    E  E  E  E  E  E  E  E    
---------------------------|--------------------------| 
---------------------------|--------------------------| 
--3--3--3--3--3--3--3--3-0-|--------------------------| 
---------------------------|--3--3--3--3--3--3--3--3--| 


  E  E  E  E  E  E  E  E     E  E  E  E  E  E  E  E    
--------------------------|--------------------------| 
--------------------------|--------------------------| 
--5--5--5--5--5--5--5--3--|--1--1--1--1--1--1--1--1--| 
--------------------------|--------------------------| 


  E  E  E  E  E  E  E  E     E  E  E  E  E  E  E  E    
--------------------------|--------------------------| 
--------------------------|--------------------------| 
--------------------------|--3--3--3--3--3--3--3--3--| 
--3--3--3--3--3--3--3--1--|--------------------------| 


  E  E  E  E  E  E  E  S S    E  E  E  E  E  E  E  S S   
---------------------------|---------------------------| 
---------------------------|---------------------------| 
--5--5--5--5--5--5--5--3-1-|--1--1--1--1--1--1--1--1---| 
---------------------------|-------------------------3-| 


  E  E  E  E  E  E  E  E     E  E  E  E  E  E  E  E    
--------------------------|--------------------------| 
--------------------------|--------------------------| 
--------------------------|--3--3--3--3--3--3--3--3--| 
--3--3--3--3--3--3--3--3--|--------------------------| 


  E  E  E  E  E  E  E  E     E  E  E  E  E  E  E  S S   
--------------------------|---------------------------| 
--------------------------|---------------------------| 
--5--5--5--5--5--5--5--3--|--1--1--1--1--1--1--1--1---| 
--------------------------|-------------------------3-| 


  E  E  E  E  E  E  E  E     E  E  E  E  E  E  E  E    
--------------------------|--------------------------| 
--------------------------|--------------------------| 
--------------------------|--3--3--3--3--3--3--3--3--| 
--3--3--3--3--3--3--3--3--|--------------------------| 


  E  E  E  E  E  E  E  E     E  E  E  E  E  E  E  S S   
--------------------------|---------------------------| 
--------------------------|---------------------------| 
--5--5--5--5--5--5--5--3--|--1--1--1--1--1--1--1--1---| 
--------------------------|-------------------------3-| 


  E  E  E  E  E  E  E  E     E  E  E  E  E  E  E  E    
--------------------------|--------------------------| 
--------------------------|--------------------------| 
--------------------------|--3--3--3--3--3--3--3--3--| 
--3--3--3--3--3--3--3--3--|--------------------------| 


  E  E  E  E  E  E  E  E     E  E  E  E  E  E  E  E    
--------------------------|--------------------------| 
--------------------------|--------------------------| 
--5--5--5--5--5--5--5--5--|--5--5--5--5--5--5--5--5--| 
--------------------------|--------------------------| 


  E  E  E  E  E  E  E  E     S  S E  E  S  S E  E  S  S E    
--------------------------|--------------------------------| 
--------------------------|--5h-7-------5h-7-------5h-7----| 
--5--5--5--5--5--5--5--5--|-------5--5-------5--5-------5--| 
--------------------------|--------------------------------| 


  E  E  E  E  E  E  E  E     E  E  E  E  E  E  E  E    
--------------------------|--------------------------| 
--------------------------|--------------------------| 
--------------------------|--------------------------| 
--5--5--5--5--5--5--5--5--|--5--5--5--5--5--5--5--5--| 


  E  E  E  E  E  E  E  E     E  E  E  E  E  E  E  E    
--------------------------|--------------------------| 
--------------------------|--------------------------| 
--------------------------|--------------------------| 
--5--5--5--5--5--5--5--5--|--5--5--5--5--5--5--5--3--| 


  E  E  E  E  E  E  E  E     E  E  E  E  E  E  E  E    
--------------------------|--------------------------| 
--------------------------|--------------------------| 
--------------------------|--------------------------| 
--5--5--5--5--5--5--5--5--|--5--5--5--5--5--5--5--5--| 


  E  E  E  E  E  E  E  E     E  E  E  E  E  E  E  E    
--------------------------|--------------------------| 
--------------------------|--------------------------| 
--------------------------|--------------------------| 
--5--5--5--5--5--5--5--5--|--5--5--5--5--5--5--5--3--| 


  E  E  E  E  E  E  E  E     E  E  E  E  E  E  E  E    
--------------------------|--------------------------| 
--------------------------|--------------------------| 
--5--5--5--5--5--5--5--3--|--------------------------| 
--------------------------|--6--6--6--6--6--6--6--6--| 


  E  E  E  E  E  E  E  E     E  E  E  E  E  E  E  E    
--------------------------|--------------------------| 
--------------------------|--------------------------| 
--------------------------|--3--3--3--3--3--3--3--3--| 
--3--3--3--3--3--3--3--3--|--------------------------| 


  E  E  E  E  E  E  E  E     E  E  E  E  E  E  E  E    
--------------------------|--------------------------| 
--------------------------|--------------------------| 
--5--5--5--5--5--5--5--5--|--------------------------| 
--------------------------|--6--6--6--6--6--6--6--6--| 


  E  E  E  E  E  E  E  E     E  E  E  E  S S S S S S S S   
--------------------------|------------------------------| 
--------------------------|------------------------------| 
--------------------------|--3--3--3--3--3-3-------------| 
--3--3--3--3--3--3--3--3--|------------------6-6-5-5-3-3-| 


  E  E  E  E  E  E  E  E     E  E  E  E  E  E  E  S S   
--------------------------|---------------------------| 
--------------------------|---------------------------| 
--5--5--5--5--5--5--5--5--|---------------------------| 
--------------------------|--6--6--6--6--6--6--6--6-5-| 


  E  E  E  E  E  E  E  E     E  E  E  E  S S S S S S S S   
--------------------------|------------------------------| 
--------------------------|------------------------------| 
--------------------------|--3--3--3--3--3-3-------------| 
--3--3--3--3--3--3--3--3--|------------------6-6-5-5-3-3-| 


  E  E  E  E  E  E  E  E     E  E  E  E  E  E  E  S S   
--------------------------|---------------------------| 
--------------------------|---------------------------| 
--5--5--5--5--5--5--5--3--|---------------------------| 
--------------------------|--6--6--6--6--6--6--6--6-5-| 


  E  E  E  E  E  E  E  E     E  E  E  E  E  E  S S S S   
--------------------------|----------------------------| 
--------------------------|----------------------------| 
--------------------------|--3--3--3--3--3--3----------| 
--3--3--3--3--3--3--3--3--|--------------------6-6-5-5-| 


  E  E  E  E  E  E  E  E     E  E  E  E  E  E  E  E    
--------------------------|--------------------------| 
--------------------------|--------------------------| 
--------------------------|--5--5--5--5--5--5--5--5--| 
--3--3--3--3--3--3--3--3--|--------------------------| 


  E  E  E  E  E  E  E  S S    E  E  E  E  E  E  S S S S   
---------------------------|----------------------------| 
---------------------------|----------------------------| 
--3--3--3--3--3--3--3--3-5-|--5--5--5--5--5--5----------| 
---------------------------|--------------------6-6-5-5-| 


  E  E  E  E  E  E  E  E     E  E  E  E  E  E  E  E    
--------------------------|--------------------------| 
--------------------------|--------------------------| 
--------------------------|--5--5--5--5--5--5--5--5--| 
--3--3--3--3--3--3--3--3--|--------------------------| 


  E  E  E  E  E  E  E  E     E  E  E  E  E  E  E  E    
--------------------------|--------------------------| 
--------------------------|--------------------------| 
--------------------------|--------------------------| 
--3--3--3--3--3--3--3--5--|--5--5--5--5--5--5--5--5--| 


  E  E  E  E  E  E  E  E     E  E  E  E  E  E  E  E    
--------------------------|--------------------------| 
--------------------------|--------------------------| 
--------------------------|--------------------------| 
--5--5--5--5--5--5--5--5--|--5--5--5--5--5--5--5--5--| 


  E  E  E  E  E  E  E  E     E  E  E  E  E  E  E  E    
--------------------------|--------------------------| 
--------------------5--7--|--------------------------| 
--------4--5--7--7--------|--5--5--5--5--5--5--5--5--| 
--5--5--------------------|--------------------------| 


  E  E  E  E  E  E  E  E     E  E  E  E  E  E  E  E    
--------------------------|--------------------------| 
--------------------------|--------------------------| 
--------------------------|--------------------------| 
--6--6--6--6--6--6--6--6--|--3--3--3--3--3--3--3--3--| 


  E  E  E  E  E  E  S S S S    E  E  E  E  E  E  E  E    
----------------------------|--------------------------| 
----------------------------|--------------------------| 
--3--3--3--3--3--3--3-0-3-4-|--5--5--5--5--5--5--5--5--| 
----------------------------|--------------------------| 


  E  E  E  E  E  E  E  E     E  E  E  E  E  E  E  E    
--------------------------|--------------------------| 
--------------------------|--------------------------| 
--------------------------|--------------------------| 
--6--6--6--6--6--6--6--6--|--3--3--3--3--3--3--3--3--| 


  E  E  E  E  E  E  S S S S    E  E  E  E  E  E  E  E    
----------------------------|--------------------------| 
----------------------------|--------------------------| 
--3--3--3--3--3--3--3-0-3-4-|--5--5--5--5--5--5--5--5--| 
----------------------------|--------------------------| 


  E  E  E  E  E  E  E  E     E  E  E  E  E  E  E  E    
--------------------------|--------------------------| 
--------------------------|--------------------------| 
--------------------------|--------------------------| 
--6--6--6--6--6--6--6--6--|--3--3--3--3--3--3--3--3--| 


  E  E  E  E  E  E  E  E     E  E  E  E  E  E  E  E    
--------------------------|--------------------------| 
--------------------------|--------------------------| 
--3--3--3--3--3--3--3--3--|--5--5--5--5--5--5--5--5--| 
--------------------------|--------------------------| 


  E  E  E  E  E  E  E  E     E  E  E  E  E  E  E  E    
--------------------------|--------------------------| 
--------------------------|--------------------------| 
--------------------------|--------------------------| 
--6--6--6--6--6--6--6--6--|--3--3--3--3--3--3--3--3--| 


  E  E  E  E  E  E  E  E           
--------------------------|-----|| 
--------------3-----3--2--|-----|| 
--3--3--3--3-----3--------|-----|| 
--------------------------|-----||