Unwind chords

Green River

Simplify chords 

Try Fender Play free for 14 days

  			(intro) 
|---------------------------------------------------------------------------- 
|2b--------------------2b---------------------2b--------------------2b------- 
|2b---2---01----------2b---2---01-----------2b---2---01----------2b--2------- 
|2b--------------------2b---------------------2b--------------------2b------- 
|---------------------------------------------------------------------------- 
|---------------3--0------------------3--0-------------------3--0------------ 

--------4------3------2------------------------| 
-----------------------------------------------| 
-0---4---4-/3---3-/2----1---1--2--3--4----/12--| 
-----------------------------------------------| 
-----------------------------------------------| 
-----------------------------------------------| 

|---------------------------------------------------------------------------- 
|---------------------------------------------------------------------------- 
|---------------------------------------------------------------------------- 
|-----------2-----------------2-----------------2-----------------------2---- 
|-2-2--2-4--2--2-2--2-2--2-4--2--2-2--2-2--2-4--2--2-2--2-2-4-2-5-2-2-4-2---- 
|-0-0--0----0--0-0--0-0--0----0--0-0--0-0--0----0--0-0--0-0-0-0-0-0-0---0---- 
            *                 *                 *                       * 
--------| 
--------| 
--------| 
------2-| 
-24--2--| 
-0----0-| 
      * 
( E ) 

(verso)  
|-----------------------------------------| 
|-----------------------------------------| 
|-----------------------------------------| 
|------0----------0-----0-----------------| 
|--4/2----4/2/4/2---4/2----4-2--------2---| 
|0------------------------------54545---5-| 

(Refrão) 
|-------------------------------| 
|-------------------------------| 
|4-4----------4--5-5---------5-5| 
|4-4--4--5-5--4--5-5----3-3--5-5| 
|2-2--4--5-5--2--3-3----3-3--3-3| 
|-----2--3-3------------1-1-----| 

|---------------------| 
|---------------------| 
|4-------5---------5-5| 
|4---5---5---3-3---5-5| 
|2---5---3---3-3---3-3| 
|----3-------1-1------| 

(última parte) 
|--------------------------------------------| 
|-12--12-12---12-----------------------------| 
|-12--12-12---12-----------------------------| 
|-12--12-12---12-----------------------------| 
|--------------7-7-7-7-7-7-7-7-7-7-7-7-7-7-7-| 
|--------------0-0-0-0-0-0-0-0-0-0-0-0-0-0-0-| 

|----------------------------------------| 
|-12--12-12---12--9--7-9--9--7-9--9--7-9-| 
|-12--12-12---12--9--7-9--9--7-9--9--7-9-| 
|-12--12-12---12-------------------------| 
|----------------------------------------| 
|----------------------------------------| 
    	

Top songs from Green River