Intime chords

Grey Daze

Key: 

  			Intro/Verse: 
        A	C 
E: -------------------------- 
B: -------------------------- 
G: --------2----------0------ 
D: -------2---2-----2-------- 
A: -----0---------3---------- 
E: -------------------------- 
 
 
Chorus: 
 
	A         F 
E: -------------------------- 
B: -------------------------- 
G: -----6-------2------------ 
D: -------7-------3---------- 
A: -------7-------3---------- 
E: ------5-------1----------- 
 
 
Pretty simple!! I just didn?t put the lead guitar!! Bye 
    	

Top songs from Grey Daze