Spanish flea chords

Herb Alpert and Tijuana Brass

Simplify chords 

Try Fender Play free for 14 days

  			Standard Tuning.  
  
|----------------------------|------------------------------|    
|--------------3----3--1--0--|-----------------1---1--------|    
|----------------------------|-----0------------------3--2--|    
|--0--1--2--3----------------|--------4--3--2---------------|    
|----------------------------|------------------------------|    
|----------------------------|------------------------------| 
  
|---------------------------|--------------------1--| 
|------------------------1--|--------2-----2--4-----| 
|---------------3--0--3-----|-----1-----3-----------| 
|---3-2-1-0--3--------------|--3--------------------| 
|---------------------------|-----------------------| 
|---------------------------|-----------------------| 
  
|--1--1--3--1-----------|------------------| 
|-------------2--1------|--3----3--1--0----| 
|-------------------3---|------------------| 
|-----------------------|------------------| 
|-----------------------|------------------| 
|-----------------------|------------------| 
  
|-------------------------|---------------------------| 
|--------------1-1--------|------------------------1--| 
|--0----------------3--2--|---------------3--0--3-----| 
|-----4--3--2-------------|---3-2-1-0--3--------------| 
|-------------------------|---------------------------| 
|-------------------------|---------------------------| 
  
|--------------------1--|--1--1--3--1------------| 
|--------2-----2--4-----|--------------2--1------| 
|-----1-----3-----------|--------------------3---| 
|--3--------------------|------------------------| 
|-----------------------|------------------------| 
|-----------------------|------------------------| 
  
  
 

    	

Top songs from Herb Alpert and Tijuana Brass