Hey Ho chords

Hinder

Key: 

Simplify chords 

Try Fender Play free for 14 days

  			



Intro: 
E|----------------------------------------------| 
B|--10\8-------10\8-------10\8--------8/10------| 
G|--9-\7-------9-\7-------9-\7--------7-/9------|x2 
D|----------------------------------------------| 
A|----------------------------------------------| 
E|----------------------------------------------| 

Em                       G 
I've never been so happy to see a girl leave 
D                             A 
Take your filthy little hands off my dirty ripped jeans 
Em                       G 
You told me you hated my G'N'R shirt 
D                      A 
Shoulda known then this is never gonna work 

Em                      G 
But like what you like, don't matter to me 
D                      A 
Just leave the jack and take your Hennessy 
Em                     G 
Take your Kanye out of my player please 
D                    A 
That Zepplin 45 is stayin' with me 

Pre-Chorus Riff: 
E|--------------------------------------------------------------------------| 
B|-------------------------------------------------12----------12-15-15-15--|b 
G|-------------------------------12----------12-14----14-12-14--------------| 
D|-------------12----------12-14----14-12-14--------------------------------| 
A|-------12-14----14-12-14--------------------------------------------------| 
E|-12-15--------------------------------------------------------------------| 

The lead guitar is playing power chords in the Chorus (on hard rock distortion). 

Em   G 
Hey, ho 
D                     A 
Ain't nothin' little 'bout rock 'n' roll 
Em   G 
Hey, ho 
D                 A 
Wrap it up and hip hop down the road 

Em   G 
Hell no 
D           A 
Don't turn down my radio 
            C                                             D 
If you're a dirty little rocker, baby, come on and let it show 

 
E|--------------------------| 
B|--------------------------| 
G|--------------------------| 
D|--------------------------| 
A|--5-----5-----5-----5-----| 
E|-----2-----3-----4-----5--| 

               Em 
And scream, "Hey, ho" 



E|----------------------------------------------------------| 
B|-12-------------12-------------12-------------------------| 
G|-12-------------12-------------12-------------------------| 
D|----14-12-14------14-12-14-------14-12--------------------| 
A|----------------------------------------14\12-10/12\10----| 

E|----------------------------------------------------| 
E|----------------------------------------------------| 
B|-12-------------12-------------12-------------------| 
G|-12-------------12-------------12-------12-14b14b---| 
D|-------14-12-14-------14-12-14-------14-12----------| 
A|----------------------------------------------------| 
E|----------------------------------------------------| 



You never liked any damn song I wrote 
You spent my money and you smoked my smoke 
Pumpin' lame ass beats in your foreign car 
It ain't real music without guitar 

I like Jimmy Hendrix, baby, don't you know? 
I like gettin' high, not ridin' low 

Hey, ho 
Ain't nothin' little 'bout rock 'n' roll 
Hey, ho 
Wrap it up and hip hop down the road 

Hell no 
Don't turn down my radio 
If you're a dirty little rocker, baby, come on and let it show 
And scream, "Hey, ho" 
                          A 
You can wait in line at the club if you wanna 
G 
Shake your ass all night but I'm gonna 
F 
Find a rocker chick that'll bang to Nirvana 
E 
Yo, ho, you gotta go, you ain't nothin' but a 

Hey, ho 
Ain't nothin' little 'bout rock 'n' roll 
Hey, ho 
Wrap it up and hip hop down the road 

Hell no 
Don't turn down my radio 
If you're a dirty little rocker 
Baby, come on and let it show 
And scream, "Hey, ho" 

Never been so happy to see a girl leave 
Take Lil' Wayne out of my player, please 
Shoulda never let you smoke my smoke 
I like gettin' high, not ridin' low 

 

If you're a dirty little rocker, baby, come on and let it show 
And scream, "Hey, ho" 
Last call 
See ya later, baby, arrivederci