Homecoming Quenn chords

Hinder

Key: 

Simplify chords 

Try Fender Play free for 14 days

  			Acordes da Intro: C,G,F,G 

TAB Intro: 
E|----------------------------------------------------------------------------------------------------------- 
A|----------------------------------------------------------------------------------------------------------- 
D|----10-10-12-12-------------10-10-12-12--------------10-10-12-12-------------10-10-12-12------------------- 
G|----------------------------------------------------------------------------------------------------------- 
B|----------------13-13-12-12--------------13-13-12-12-------------13-13-12-12-------------13-13-12-12------- 
E|----------------------------------------------------------------------------------------------------------- 

E|----------------------------------------------------------------------------------------------------------I 
A|----------------------------------------------------------------------------------------------------------I 
D|----10-10-12-12-14-14-15-15-17-17-15-15-14-14-12-12-15-15-14-14------------15-15-14-14-----------15-14----I 
G|----------------------------------------------------------------------------------------------------------I 
B|----------------------------------------------------------------13-13-12-12-----------13-13-12-12---------I 
E|----------------------------------------------------------------------------------------------------------I 

C 
It's been five years since I've seen her face 
  G 
She's the holy ghost lost without a trace 
     F 
And now we're left with the "what-if"s 
           C 
It's been five years since she left for LA 
         G 
She's an angel with a dirty face 
        F 
And it seems to me she's a casuality 
   Am                    G 
Of all the pressure that we put on her 
     F                       G7  F 
And now we've lost her for good 

             C 
It's such a shame shame shame 

That our homecoming queen 
       G 
Was a lot like you and a lot like me 
     F 
And she never walked on water 
         G7               C (Intro) 
Guess no one really saw her 

C 
She was so adored by everyone 
G 
When it came to looks she was next to none 
     F 
But loved partying and having too much fun 
        C 
Then she hooked up with the wrong someone 
G 
And he promised everything under the sun 
       F 
And it seems to me she's a casuality 
   Am                    G 
Of all the pressure that he put on her 
     F                     G7   F 
And now we've lost her for good 

           C 
It's such a shame shame shame 

That our homecoming queen 
       G 
Was a lot like you and a lot like me 
        F 
And she never walked on water 

Cause no one really saw her 
C 
Shame shame shame 

That our homecoming queen 
       G 
Had a lot to prove and so many to please 
           F 
She's just somebody's daughter 
      G7                           C 
Just looking for somebody to love her 
Dm                 C 
Well I never knew you 
                       F 
Wish I could've saved you 
                          G 
From losers that drained you 
                      Dm 
Before you got strung out 
                C 
With so much potential 
               G      F   G7  F 
How could you let us down 

         C 
It's such a shame shame shame 

That our homecoming queen 
       G 
Was a lot like you and a lot like me 
        F 
And she never walked on water 

Cause no one really saw her 
C 
Shame shame shame 

That our homecoming queen 
       G 
Had a lot to prove and so many to please 
           F 
She's just somebody's daughter 
      G7                           C 
Just looking for somebody to love her 


Its such a shame shame shame...