Full Circle chords

Ink And Dagger

  			

BD = Bend down 

    e|-------------------------------------------| 
    b|-------------------------------------------| 
GTR G|-------1BD-------------0--------1BD--------| 
 1  D|-----------2------2----4------------2------| 
    A|--------------3-3-0-------------------1----| 
    E|-0-0-0--------------2-----0-0-0------------| 

    e|------------5-4--------------------------------| 
    b|----------------5-4----------------------------| 
GTR G|-------1BD-------------------------------------| 
1+2 D|---------------------6-6-5-4-----4-4-5-6-------| 
    A|---------------------6-6-5-4-xxx-4-4-5-6---4---| 
    E|-0-0-0---------------4-4-3-2-xxx-2-2-3-4-2---4-| 

    e|------------5-4-----------------------------------| 
    b|----------------5-4-------------------------------| 
GTR G|-------1BD----------------------------------------| 
 1  D|--------------------7-6-6-6-5-4-----4-4-5-6-------| 
    A|------------------------6-6-5-4-xxx-4-4-5-6---4---| 
    E|-0-0-0------------------4-4-3-2-xxx-2-2-3-4-2---4-| 

    e|------------------------------------------------| 
    b|------------------------------------------------| 
GTR G|-------1BD--------------------------------------| 
 2  D|------------7-6-------6-6-4-4-----4-4-5-6-------| 
    A|----------------7/11--6-6-5-4-xxx-4-4-5-6---4---| 
    E|-0-0-0----------------4-4-3-2-xxx-2-2-3-4-2---4-| 

    e|------------5-8-5-4----------------------------| 
    b|-----------------------------------------------| 
GTR G|-------1BD-------------------------------------| 
 1  D|---------------------6-6-5-4-----4-4-5-6-------| 
    A|---------------------6-6-5-4-xxx-4-4-5-6---4---| 
    E|-0-0-0---------------4-4-3-2-xxx-2-2-3-4-2---4-| 

    e|-------------------------------------------------| 
    b|-------------------------------------------------| 
GTR G|-------1BD---------------------------------------| 
 2  D|------------------4/6--6-6-5-4-----4-4-5-6-------| 
    A|------------4-4-4------6-6-5-4-xxx-4-4-5-6---4---| 
    E|-0-0-0-----------------4-4-3-2-xxx-2-2-3-4-2---4-| 

    e|-----------4--5-5-4----------------------------| 
    b|--------------------5--------------------------| 
GTR G|-------1BD-------------------------------------| 
 1  D|---------------------6-6-5-4-----4-4-5-6-------| 
    A|---------------------6-6-5-4-xxx-4-4-5-6---4---| 
    E|-0-0-0---------------4-4-3-2-xxx-2-2-3-4-2---4-| 

    e|-------------------------------------------------| 
    b|-------------------------------------------------| 
GTR G|-------1BD---------------------------------------| 
 2  D|------------------4/6--6-6-5-4-----4-4-5-6-------| 
    A|------------4-4-4------6-6-5-4-xxx-4-4-5-6---4---| 
    E|-0-0-0-----------------4-4-3-2-xxx-2-2-3-4-2---4-| 

    e|------------4--5-4---------| 
    b|-------------------5-4-----| 
GTR G|-------1BD-----------------| 
 1  D|-----------------------7-6-| x2 
    A|---------------------------| 
    E|-0-0-0---------------------| 

    e|---------------------| 
    b|---------------------| 
GTR G|-------1-------1-----| 
 2  D|---2-2-----2-2---2-1-| x2 
    A|---------------------| 
    E|---------------------| 

    e|------------5-8-5-4-| 
    b|--------------------| 
GTR G|-------1BD----------| 
 1  D|--------------------|  
    A|--------------------| 
    E|-0-0-0--------------| 

    e|---------------------| 
    b|---------------------| 
GTR G|-------1-------1-----| 
 2  D|---2-2-----2-2---2-1-|  
    A|---------------------| 
    E|---------------------| 

    e|------------------------| 
    b|------------------------| 
GTR G|-------1BD--------------| 
 1  D|------------------------|  
    A|------------4-4-4-4-4-4-| 
    E|-0-0-0------------------| 

    e|---------------------| 
    b|---------------------| 
GTR G|-------1-------1-----| 
 2  D|---2-2-----2-2---2-1-|  
    A|---------------------| 
    E|---------------------| 

    e|-----------------------------------------------| 
    b|-----------------------------------------------| 
GTR G|-------1BD-------------------------------------| 
 1  D|------------7-6------6-6-5-4-----4-4-5-6-------| 
    A|----------------7-6--6-6-5-4-xxx-4-4-5-6---4---| 
    E|-0-0-0---------------4-4-3-2-xxx-2-2-3-4-2---4-| 

    e|-------------------------------------------------| 
    b|-------------------------------------------------| 
GTR G|-------1BD--------/11----------------------------| 
 2  D|------------7-7-6------6-6-5-4-----4-4-5-6-------| 
    A|-----------------------6-6-5-4-xxx-4-4-5-6---4---| 
    E|-0-0-0-----------------4-4-3-2-xxx-2-2-3-4-2---4-| 

    e|------------5-8-5-4----------------------------| 
    b|-----------------------------------------------| 
GTR G|-------1BD-------------------------------------| 
 1  D|---------------------6-6-5-4-----4-4-5-6-------| 
    A|---------------------6-6-5-4-xxx-4-4-5-6---4---| 
    E|-0-0-0---------------4-4-3-2-xxx-2-2-3-4-2---4-| 

    e|-------------------------------------------------| 
    b|-------------------------------------------------| 
GTR G|-------1BD---------------------------------------| 
 2  D|------------------4/6--6-6-5-4-----4-4-5-6-------| 
    A|------------4-4-4------6-6-5-4-xxx-4-4-5-6---4---| 
    E|-0-0-0-----------------4-4-3-2-xxx-2-2-3-4-2---4-| 

    e|------------5-9-5-4---| 
    b|--------------------5-| 
GTR G|-------1BD------------| 
 1  D|----------------------|  
    A|----------------------| 
    E|-0-0-0----------------| 

    e|---------------------| 
    b|---------------------| 
GTR G|-------1-------1-----| 
 2  D|---2-2-----2-2---2-1-|  
    A|---------------------| 
    E|---------------------| 

    e|------------5-8-5-4-----| 
    b|--------------------5-4-| 
GTR G|-------1BD--------------| 
 1  D|------------------------|  
    A|------------------------| 
    E|-0-0-0------------------| 

    e|---------------------| 
    b|---------------------| 
GTR G|-------1-------1-----| 
 2  D|---2-2-----2-2---2-1-|  
    A|---------------------| 
    E|---------------------| 

    e|------------5-8-5-4----| 
    b|-----------------------| 
GTR G|-------1BD-------------| 
 1  D|-----------------------|  
    A|-----------------------| 
    E|-0-0-0-----------------| 

    e|---------------------| 
    b|---------------------| 
GTR G|-------1-------1-----| 
 2  D|---2-2-----2-2---2-1-|  
    A|---------------------| 
    E|---------------------| 

    e|------------------------| 
    b|------------------------| 
GTR G|-------1BD--------------| 
 1  D|------------------------|  
    A|------------4-4-4-4-4-4-| 
    E|-0-0-0------------------| 

    e|---------------------| 
    b|---------------------| 
GTR G|-------1-------1-----| 
 2  D|---2-2-----2-2---2-1-|  
    A|---------------------| 
    E|---------------------| 

    e|-----------5---9-----| 
    b|-------------9-------| 
GTR G|-------1BD-------1BD-| 
1+2 D|---------------------| 
    A|---------------------| 
    E|-0-0-0---------------| 

    e|-----------5---9-5\4-8--| 
    b|-------------9----------| 
GTR G|-------1BD--------------| 
1+2 D|------------------------| 
    A|------------------------| 
    E|-0-0-0------------------| 

    e|-----------5---------| 
    b|-------------9-------| 
GTR G|-------1BD-----6/9---|  
1+2 D|---------------------| x2 
    A|---------------------| 
    E|-0-0-0---------------| 

    e|----------------------| 
    b|----------------------| 
GTR G|----9-9-------------9-| 
 1  D|--8-----8----8----8---| 1,3 
    A|--7-------7----7------| 
    E|----------------------| 

    e|---------------------------------| 
    b|---------------------------------| 
GTR G|-------------------------6-6-6-6-| 
 2  D|-------------------------6-6-6-6-| 1,3 
    A|-4-4-4-4-6-6-6-6-2-2-2-2-4-4-4-4-| 
    E|-2-2-2-2-4-4-4-4-0-0-0-0---------| 
       P M P M P M P M P M P M 

    e|-----------------------| 
    b|-----------------------| 
GTR G|----9-9----------8-9---| 
 1  D|--8-----8------8-----8-| 2,4 
    A|--7-------7--7---------| 
    E|-----------------------| 

    e|---------------------------------| 
    b|---------------------------------| 
GTR G|-------------------------6-6-6-6-| 
 2  D|-------------------------6-6-6-6-| 2,4 
    A|-4-4-4-4-6-6-6-6-2-2-2-2-4-4-4-4-| 
    E|-2-2-2-2-4-4-4-4-0-0-0-0---------| 
       P M P M P M P M P M P M 

    e|-------------------| 
    b|-------------------| 
GTR G|------9------------| 
 1  D|----8---8-----8----| x4 
    A|--7---------7------| 
    E|-------------------| 

    e|---------------------------------| 
    b|---------------------------------| 
GTR G|-------------------------6-6-6-6-| 
 2  D|-------------------------6-6-6-6-| x4 
    A|-4-4-4-4-6-6-6-6-2-2-2-2-4-4-4-4-| 
    E|-2-2-2-2-4-4-4-4-0-0-0-0---------| 
       P M P M P M P M P M P M 

    e|-------------------------| 
    b|-------------------------| 
GTR G|----------------6--------| 
1+2 D|-4--5-6------2--6-6------| 1,3,5,7 
    A|-4--5-6------2--4-6------| 
    E|-2--3-4-4444-0----4-4444-|  
              PMPM        PMPM 

    e|--------------------------| 
    b|--------------------------| 
GTR G|----------------6---------| 
1+2 D|-4--5-6------2--6-6-------| 2,4,6,8 
    A|-4--5-6------2--4-6---4---| 
    E|-2--3-4-4444-0----4-2---4-|  
              PMPM         

    e|---------------------| 
    b|---------------------| 
GTR G|-----------------6---| 
1+2 D|-4--5-6------2-2-6-6-|  
    A|-4--5-6------2-2-4-6-| 
    E|-2--3-4-4444-0-0---4-|  
              PMPM P M      

    e|---------------------------| 
    b|---------------------------| 
GTR G|-----------------6---------| 
1+2 D|-4--5-6------2-2-6-6-4-6-4-|  
    A|-4--5-6------2-2-4-6-4-6-4-| 
    E|-2--3-4-4444-0-0---4-2-4-2-|  
              PMPM P M     

    e|---------| 
    b|---------| 
GTR G|---------| 
1+2 D|---------| 
    A|-2-2-2-2-| 
    E|-0-0-0-0-| 
       P M P M 
    	

Top songs from Ink And Dagger