Out There chords

Itchy Poopzkid

Key: 

  			


----- !!! WARNING !!! ----- 
Usually, they play their songs in Eb-tuning. 
This song is NOT played in this tuning, it's in Drop C# 
"Said You'd Be There" is in Drop C# too, i don't know more songs at the moment, they are just exceptions. 
You can play it in Eb too, but you have to play the '0's on  
the Db-string with the 5th fret on the Ab-string, but this is harder than in this tuning. 
These are tabs only, you have to find out the strumming yourself. 


Now have fun playing, I hope you enjoy! 


Verse 
Eb|----------------------------------|----------------------------------------| 
Bb|----------------------------------|----------------------------------------| 
Gb|----------------------------------|-always-3-times-------------------------| 
Db|----------------------------------|------then------------------------------| (3x, only the first time!) 
Ab|-5-5------------------------------|----------------------------------------| 
Db|------7-8-8--5-7-7--3-5-3-2-------|------------7-3-0--5-3-7-3-0------------| 

Bridge 
Eb|---------------------------------------------------------------------------| 
Bb|----------------------10-10-10-10------------------------------------------| 
Gb|------2~--2~--2~--2~--9--9--9--9-------------------------------------------| 
Db|------2~--2~--2~--2~--7--7--7--7-------------------------------------------| 
Ab|------0~--0~--0~--0~--0--0--0--0-------------------------------------------| 
Db|-0--0----------------------------------------------------------------------| 

Chorus 
Eb|---------------------------------------------------------------------------| 
Bb|---------------------------------------------------------------------------| 
Gb|-7--7--7--7--4--4--4--4----------------------------------------------------| (2x) 
Db|-7--7--7--7--4--4--4--4--5--5--5--5--8--8--7--7----------------------------| 
Ab|-5--5--5--5--2--2--2--2--5--5--5--5--8--8--7--7----------------------------| 
Db|-------------------------5--5--5--5--8--8--7--7----------------------------| 

Interlude (like the intro, just with powerchords) 
Eb|----------------------------------|--------NOT-BEFORE-BREAKDOWN!!!---------| 
Bb|----------------------------------|--------NOT-BEFORE-BREAKDOWN!!!---------| 
Gb|-7-7------------------------------|-3-times--------------------------------| 
Db|-7-7--7-8-8--5-7-7--3-5-3-2-------|---then----7-3-0--5-3-7-3-0-------------| 
Ab|-5-5--7-8-8--5-7-7--3-5-3-2-------|-----------7-3-0--5-3-7-3-0-------------| 
Db|------7-8-8--5-7-7--3-5-3-2-------|-----------7-3-0--5-3-7-3-0-------------| 

Verse (2x) 
Bridge 
Chorus 
Interlude 

Breakdown 
Eb|------------------------------------------------------------------------------| 
Bb|------------------------------------------------------------------------------| 
Gb|------------------------------------------------------------------------------| 
Db|----------------------------------------------------------------------------7-| 
Ab|----------------------------------------------------------------------------5-| 
Db|-0--0--3b--0--0--3b--0--0--3b--0--0--6--0--0--3b--0--0--3b--0--0--3b--0--0----| 
    *  *      *  *      *  *      *  *     *  *      *  *      *  *      *  * 

Eb|------------------------------------------------------------------------------| 
Bb|------------------------------------------------------------------------------| 
Gb|------------------------------------------------------------------------------| 
Db|------------------------------------------------------------------------------| 
Ab|------------------------------------------------------------------------------| 
Db|-0--0--3b--0--0--3b--0--0--3b--0--0--6--0--0--3b--0--0--3b--0--0--3--7--5--3--| 
    *  *      *  *      *  *      *  *     *  *      *  *      *  * 

Eb|------------------------------------------------------------------------------| 
Bb|------------------------------------------------------------------------------| 
Gb|------------------------------------------------------------------------------| 
Db|----------------------------------------------------------------------------7-| 
Ab|----------------------------------------------------------------------------5-| 
Db|-0--0--3b--0--0--3b--0--0--3b--0--0--6--0--0--3b--0--0--3b--0--0--3b--0--0----| 
    *  *      *  *      *  *      *  *     *  *      *  *      *  *      *  * 

Eb|------------------------------------------------------------------------------| 
Bb|------------------------------------------------------------------------------| 
Gb|------------------------------------------------------------------------------| 
Db|------------------------------------------------------------------------------| 
Ab|------------------------------------------------------------------------------| 
Db|-0--0--3b--0--0--3b--0--0--3b--0--0--7--7--3--0--5--3--7--3--0----------------| 
    *  *      *  *      *  *      *  * 

Bridge 
Chorus 
Interlude 


************************************ 

| b   Bend 

************************************