Delusion chords

Novelists

Simplify chords 

Try Fender Play free for 14 days

  			
Intro : 

*----------------------------------------------------8----------8-------------5---------5-----5---------------* 
*---------------13---13----------------8------------10----------8-------------6---------5--6--5---------------* 
*---------------10---10---------------10---10--8----10---------10-------------5---------5-----5---------------* 
*-0-------------12---12--------------------10--8-----8---8--8---8-------------8---------8-----8--0------------* 
*-0----------------------------------------10--8---------8--8------------------------------------0------------* 
*-0----0-0-0-0-----0------0-0-0-0-0-0--------------------8--8--------5-5-5-5------5--5-----------0------------* 
      P.M-----|    P.M   P.M---------|                  P.M--|      P.M-----|    P.M--|         P.M  

*----------------------------------------------------8----------8-------------8---------8---8---8---8---------* 
*---------------13---13----------------8------------10----------8-------------8---------8---8---8---8---------* 
*---------------10---10---------------10---10--8----10---------10------------10--------10--10--10--10---------* 
*---------------12---12--------------------10--8-----8---8--8---8------------11--------11--11--12--12---------* 
*------------------------------------------10--8---------8--8--------0-0-0-0------0--0------------------------* 
*---0-0-0-0-0-0----0------0-0-0-0-0-0--------------------8--8-------------------------------------------------* 
   P.M---------|  P.M    P.M---------|                  P.M--|      P.M-----|    P.M--| 

*----------------------------------------------------8----------8-------------5---------5-----5---------------* 
*---------------13---13----------------8------------10----------8-------------6---------5--6--5---------------* 
*---------------10---10---------------10---10--8----10---------10-------------5---------5-----5---------------* 
*-0-------------12---12--------------------10--8-----8---8--8---8-------------8---------8-----8--7------------* 
*-0----------------------------------------10--8---------8--8------------------------------------5------------* 
*-0----0-0-0-0-----0------0-0-0-0-0-0--------------------8--8--------5-5-5-5------5--5-----------4------------* 
      P.M-----|    P.M   P.M---------|                  P.M--|      P.M-----|    P.M--|         P.M  

Pre-Chorus : 

*--------------0------------------0-----------------5------------------8------------------8---------------* 
*-----------------6------------------6--------------6--------------6---8----------------8-----------------* 
*--------------------5------------------5-----------5-----------5-----10-------------10-------------------* 
*-----------------------7------------------7/0------7-----7/8---------11----------11----------------------* 
*-----------------------3-----------------------0---5------------------0----0-0-0-------------------------* 
*------4--4-------------3-----3---------------------5---5-------------------------------------------------* 
      P.M--|                 P.M                       P.M                 P.M-----------| 

*-----------------------------------------------------------* (X3) 
*-----------------------------------------------------------* 
*-----------------------------------------------------------* 
*-----------------------------------------------------------* 
*-----------------------------------------------------------* 
*---0-0-0-0--0-0-0-0--0-0-0-0--0-0-0-0--0-0-0-0--0-0-0-0----* 

*-----------------------------------------------------------* 
*-----------------------------------------------------------* 
*--------------------------------------------------2/3\2----* 
*--------------------------------------------------------3--* 
*-----------------------------------------------------------* 
*---0-0-0-0--0-0-0-0--0-0-0-0--0-0-0-0--0-0-0-0--0----------* 


*-----------------------------------------------------------* (X3) 
*-----------------------------------------------------------* 
*-----------------------------------------------------------* 
*-----------------------------------------------------------* 
*-----------------------------------------------------------* 
*---0-0-0-0--0-0-0-0--0-0-0-0--0-0-0-0--0-0-0-0--0-0-0-0----* 

Chorus : 

*-----------------------------------------------------------* 
*-----------------------------------------------------------* 
*--------------------------------------------------2/3\2----* 
*--------------------------------------------------------3--* 
*-----------------------------------------------------------* 
*---0-0-0-0--0-0-0-0--0-0-0-0--0-0-0-0--0-0-0-0--0----------* 

*----------------------------------------------------------------------------------------------------------| 
*----------------------------------------------------------------------------------------------------------| 
*------------------------------------------------------------------------------2---------------------------| 
*-3--------5--7-----7------7--10---10----10--10--10--10---10--10----8-7--------0------2--3-----3------2--0-| 
*-0--------3--3-----3------3---8----8-----8---8---8---8----8---8----------8/10-0------3--3-----3------3--1-| 
*-0-----0--2--3--3--3---3--3---7----8-----8---8---8---8----8---8---------------0---0--2--3--3--3--0-0-5--3-| 
       P.M      P.M    P.M               P.M              P.M      P.M--|         P.M--|   P.M 
-------------------------* 
-------------------------* 
-------------------------* 
-0-0-0-0--0-------2------* 
-1-1-1-1--1--3-----------* 
-3-3-3-3--3-----3----2---* 
P.M 

*-----------------------------------------------------------------------------------------------------| 
*-----------------------------------------------------------------------------------------------------| 
*------------------------------------------------------------------------5----2-----------------------| 
*-3--------5--7-----7------7--10---10----10--10--10--10--10--10--------3------0---2--3----3------2--0-| 
*-0--------3--3-----3------3---8----8-----8---8---8---8---8---8--0/3\5--------0---3--3----3------3--1-| 
*-0-----0--2--3--3--3---3--3---7----8-----8---8---8---8---8---8---------------0---2--3--3-3--0-0-5--3-| 
       P.M      P.M    P.M               P.M              P.M      P.M--|         P.M--|   P.M 

-------------------------* 
-------------------------* 
-------------------------* 
-0-0-0-0--0----0--2------* 
-1-1-1-1--1----1--3------* 
-3-3-3-3--3--0-3--5------* 
P.M---------| 

Post Chorus : 

*-----12-------13-----------------*(X3)                           *----12----* 
*-----13--------------------------*                               *----15----* 
*-----12--------------------------*                               *----14----* 
*-----15--------------------------* and finish the post Chorus by *----12----* 
*---------------------------------*                               *----------* 
*---------------------------------*                               *----------* 

Verse : 

*----------------------------------------------------8----------8-------------5---------5-----5---------------* 
*---------------13---13----------------8------------10----------8-------------6---------5--6--5---------------* 
*---------------10---10---------------10---10--8----10---------10-------------5---------5-----5---------------* 
*-0-------------12---12--------------------10--8-----8---8--8---8-------------8---------8-----8--0------------* 
*-0----------------------------------------10--8---------8--8------------------------------------0------------* 
*-0----0-0-0-0-----0------0-0-0-0-0-0--------------------8--8--------5-5-5-5------5--5-----------0------------* 
      P.M-----|    P.M   P.M---------|                  P.M--|      P.M-----|    P.M--|         P.M  

*----------------------------------------------------8----------8-------------8---------8---8---8---8---------* 
*---------------13---13----------------8------------10----------8-------------8---------8---8---8---8---------* 
*---------------10---10---------------10---10--8----10---------10------------10--------10--10--10--10---------* 
*---------------12---12--------------------10--8-----8---8--8---8------------11--------11--11--12--12---------* 
*------------------------------------------10--8---------8--8--------0-0-0-0------0--0------------------------* 
*---0-0-0-0-0-0----0------0-0-0-0-0-0--------------------8--8-------------------------------------------------* 
   P.M---------|  P.M    P.M---------|                  P.M--|      P.M-----|    P.M--| 

*----------------------------------------------------8----------8-------------5---------5-----5---------------* 
*---------------13---13----------------8------------10----------8-------------6---------5--6--5---------------* 
*---------------10---10---------------10---10--8----10---------10-------------5---------5-----5---------------* 
*-0-------------12---12--------------------10--8-----8---8--8---8-------------8---------8-----8--7------------* 
*-0----------------------------------------10--8---------8--8------------------------------------5------------* 
*-0----0-0-0-0-----0------0-0-0-0-0-0--------------------8--8--------5-5-5-5------5--5-----------4------------* 
      P.M-----|    P.M   P.M---------|                  P.M--|      P.M-----|    P.M--|         P.M  

Pre Chorus :  
*--------------0------------------0-----------------5------------------8------------------8---------------* 
*-----------------6------------------6--------------6--------------6---8----------------8-----------------* 
*--------------------5------------------5-----------5-----------5-----10-------------10-------------------* 
*-----------------------7------------------7/0------7-----7/8---------11----------11----------------------* 
*-----------------------3-----------------------0---5------------------0----0-0-0-------------------------* 
*------4--4-------------3-----3---------------------5---5-------------------------------------------------* 
      P.M--|                 P.M                       P.M                 P.M-----------| 

*----------------------------------------------------------------------------------------------------| 
*----------------------------------------------------------------------------------------------------| 
*----------------------------------------------------------------------------------------------------| 
*--0--0-0-0-0--0-0-0-0--0--------------------------------------------5h--0-0-0-0------------0-0-0-0--| 
*--0--0-0-0-0--0-0-0-0--0------------------------------------------------0-0-0-0------------0-0-0-0--| 
*--0--0-0-0-0--0-0-0-0--0---1b-0--0-0--0-0--0-0--0-0--0-0--0-1--0-1------0-0-0-0--0-0--0-0--0-0-0-0--| 


-------------------------------------------* 
-------------------------------------------* 
-------------------------------------------* 
0-0-0-0---------------------------0-0-0-0--* 
0-0-0-0---------------------------0-0-0-0--* 
0-0-0-0----0/11-0-0/11-0-0/11-12--0-0-0-0--* 


*--------------------------------------------------------------------------------------------*(X4) 
*--------------------------------------------------------------------------------------------* 
*--------------------------------------------------------------------------------------------* 
*-0--0--0-0-0-0--0--0-0-0-0--0--0-0--0-0--0--0-0--0-0--0--0--0-0-0-0--0-0--0-0--0--0-1--0-1--* 
*-0--0--0-0-0-0--0--0-0-0-0--0--0-0--0-0--0--0-0--0-0--0--0--0-0-0-0--0-0--0-0--0--0-1--0-1--* 
*-0--0--0-0-0-0--0--0-0-0-0--0--0-0--0-0--0--0-0--0-0--0--0--0-0-0-0--0-0--0-0--0--0-1--0-1--* 


Chorus : 

*-----------------------------------------------------------* 
*-----------------------------------------------------------* 
*--------------------------------------------------2/3\2----* 
*--------------------------------------------------------3--* 
*-----------------------------------------------------------* 
*---0-0-0-0--0-0-0-0--0-0-0-0--0-0-0-0--0-0-0-0--0----------* 

*----------------------------------------------------------------------------------------------------------| 
*----------------------------------------------------------------------------------------------------------| 
*------------------------------------------------------------------------------2---------------------------| 
*-3--------5--7-----7------7--10---10----10--10--10--10---10--10----8-7--------0------2--3-----3------2--0-| 
*-0--------3--3-----3------3---8----8-----8---8---8---8----8---8----------8/10-0------3--3-----3------3--1-| 
*-0-----0--2--3--3--3---3--3---7----8-----8---8---8---8----8---8---------------0---0--2--3--3--3--0-0-5--3-| 
       P.M      P.M    P.M               P.M              P.M      P.M--|         P.M--|   P.M 
-------------------------* 
-------------------------* 
-------------------------* 
-0-0-0-0--0-------2------* 
-1-1-1-1--1--3-----------* 
-3-3-3-3--3-----3----2---* 
P.M 

*----------------------------------------------------------------------------------------------------- 
*----------------------------------------------------------------------------------------------------- 
*------------------------------------------------------------------------5----2----------------------- 
*-3--------5--7-----7------7--10---10----10--10--10--10--10--10--------3------0---2--3----3------2--0- 
*-0--------3--3-----3------3---8----8-----8---8---8---8---8---8--0/3\5--------0---3--3----3------3--1- 
*-0-----0--2--3--3--3---3--3---7----8-----8---8---8---8---8---8---------------0---2--3--3-3--0-0-5--3- 
       P.M      P.M    P.M               P.M              P.M      P.M--|         P.M--|   P.M 

-------------------------* 
-------------------------* 
-------------------------* 
-0-0-0-0--0----0--2------* 
-1-1-1-1--1----1--3------* 
-3-3-3-3--3--0-3--5------* 
P.M---------| 


Verse : 

*----------------------------------------------------8----------8-------------5---------5-----5---------------* 
*---------------13---13----------------8------------10----------8-------------6---------5--6--5---------------* 
*---------------10---10---------------10---10--8----10---------10-------------5---------5-----5---------------* 
*-0-------------12---12--------------------10--8-----8---8--8---8-------------8---------8-----8--0------------* 
*-0----------------------------------------10--8---------8--8------------------------------------0------------* 
*-0----0-0-0-0-----0------0-0-0-0-0-0--------------------8--8--------5-5-5-5------5--5-----------0------------* 
      P.M-----|    P.M   P.M---------|                  P.M--|      P.M-----|    P.M--|         P.M  

*----------------------------------------------------8----------8-------------8---------8---8---8---8---------* 
*---------------13---13----------------8------------10----------8-------------8---------8---8---8---8---------* 
*---------------10---10---------------10---10--8----10---------10------------10--------10--10--10--10---------* 
*---------------12---12--------------------10--8-----8---8--8---8------------11--------11--11--12--12---------* 
*------------------------------------------10--8---------8--8--------0-0-0-0------0--0------------------------* 
*---0-0-0-0-0-0----0------0-0-0-0-0-0--------------------8--8-------------------------------------------------* 
   P.M---------|  P.M    P.M---------|                  P.M--|      P.M-----|    P.M--| 

*----------------------------------------------------8----------8-------------5---------5-----5---------------* 
*---------------13---13----------------8------------10----------8-------------6---------5--6--5---------------* 
*---------------10---10---------------10---10--8----10---------10-------------5---------5-----5---------------* 
*-0-------------12---12--------------------10--8-----8---8--8---8-------------8---------8-----8--7------------* 
*-0----------------------------------------10--8---------8--8------------------------------------5------------* 
*-0----0-0-0-0-----0------0-0-0-0-0-0--------------------8--8--------5-5-5-5------5--5-----------4------------* 
      P.M-----|    P.M   P.M---------|                  P.M--|      P.M-----|    P.M--|         P.M  

*--------------0------------------0-----------------5------------------4-----------* 
*-----------------6------------------6--------------6--------------6---4--x--6---6-* 
*--------------------5------------------5-----------5-----------5------6--x--6---6-* 
*-----------------------7------------------7/0------7-----7/8----------6--0--8---8-* 
*-----------------------3-----------------------0---5------------------4--x--6---6-* 
*------4--4-------------3-----3---------------------5---5--------------------------* 
      P.M--|                 P.M                       P.M 

*----------------------------------------------------8----------8-------------5---------5-----5---------------* 
*---------------13---13----------------8------------10----------8-------------6---------5--6--5---------------* 
*---------------10---10---------------10---10--8----10---------10-------------5---------5-----5---------------* 
*-0-------------12---12--------------------10--8-----8---8--8---8-------------8---------8-----8--0------------* 
*-0----------------------------------------10--8---------8--8------------------------------------0------------* 
*-0----0-0-0-0-----0------0-0-0-0-0-0--------------------8--8--------5-5-5-5------5--5-----------0------------* 
      P.M-----|    P.M   P.M---------|                  P.M--|      P.M-----|    P.M--|         P.M  

*----------------------------------------------------8----------8-------------8---------8---8---8---8---------* 
*---------------13---13----------------8------------10----------8-------------8---------8---8---8---8---------* 
*---------------10---10---------------10---10--8----10---------10------------10--------10--10--10--10---------* 
*---------------12---12--------------------10--8-----8---8--8---8------------11--------11--11--12--12---------* 
*------------------------------------------10--8---------8--8--------0-0-0-0------0--0------------------------* 
*---0-0-0-0-0-0----0------0-0-0-0-0-0--------------------8--8-------------------------------------------------* 
   P.M---------|  P.M    P.M---------|                  P.M--|      P.M-----|    P.M--| 

*----------------------------------------------------8----------8-------------5---------5-----5---------------* 
*---------------13---13----------------8------------10----------8-------------6---------5--6--5---------------* 
*---------------10---10---------------10---10--8----10---------10-------------5---------5-----5---------------* 
*-0-------------12---12--------------------10--8-----8---8--8---8-------------8---------8-----8--7------------* 
*-0----------------------------------------10--8---------8--8------------------------------------5------------* 
*-0----0-0-0-0-----0------0-0-0-0-0-0--------------------8--8--------5-5-5-5------5--5-----------4------------* 
      P.M-----|    P.M   P.M---------|                  P.M--|      P.M-----|    P.M--|         P.M  

*--------------0------------------0-----------------1--------------1---4-------------------* 
*-----------------6------------------6--------------5------------4-----7-------------------* 
*--------------------5------------------5-----------3-----0/3----------6-------------------* 
*-----------------------7------------------7/0------1------------------4----4-7----7----0--* 
*-----------------------3-----------------------0---1------------------4----4-7----7----0--* 
*------4--4-------------3-----3---------------------1---1--------------4--4-4-7--7-7----0--* 
      P.M--|                 P.M                          P.M 
    	

Top songs from Novelists