Jednom Kad Noc (solo) chords

Opća opasnost

  			 

e|-----------------------------------------------------------------------| 
B|----10b12-10b12r10-----------------------------------------------------| 
G|-------------------------------------------12--12----------------------| 
D|-------------------------------12-12-12-14-----12h14-------------------| 
A|------------------------12h14------------------------------------------| 
E|-----------------------------------------------------------------------| 

 
e|-----------------------------------------------------------------------| 
B|-----------------------------------------------------------------------| 
G|----14b16-14b16r14-------------------------12--12----------------------| 
D|-------------------------------12-12-12-14-----12h14-------------------| 
A|------------------------12h14------------------------------------------| 
E|-----------------------------------------------------------------------| 

 
e|----17b19--17b19r17----(12)-----15-------------------------------------| 
B|------------------------15b17<=====>17r15-----(12)----15---------------| 
G|-----------------------------------------------14b16<=====>16r14-------| 
D|-----------------------------------------------------------------------| 
A|-----------------------------------------------------------------------| 
E|-----------------------------------------------------------------------| 

e|-----------------------------------------------------------------------| 
B|-----------------------------------------------------------------------| 
G|--12----12-------------------------------------------------------------| 
D|-----14-------------------------------12--12h14--14------12--14--------| 
A|-------------------12------12--12h14-----------------14----------------| 
E|-----------------------15----------------------------------------------| 

e|-------------------------------------------------------------------------| 
b|-------------------------------------------------------------------------| 
G|---------12-----------------14b16--14b16r14--14--------------------------| 
D|--12h14------14-----12---------------------------------------------------| 
A|-------------------------------------------------------------------------| 
E|-------------------------------------------------------------------------|