Lonely At The Top chords

Ordinary Boys

  			Standard Tuning 
By Epipunk (UK) 

Heres the latest single from the Ordinary boys, I thought it was quite catchy so I  
to tab it out, its fun to play. I think the rhythm guitar has a slight Reverb/Flanger effect  
it so feel free to give it a try. Hope you enjoy the tab 

Heres how I play the intro before the bass kicks in 

Intro 
e|-----------6-------------| 
B|-----7-6---7----7-6------| 
G|---8----------8------8---| 
D|----------------------8--| 
A|-------------------------| 
E|-------------------------| 

Verse 

e|--66-666-6----x6x6x6x4x4x456----| 
B|--77-777-6-x3-x6x6x6x4x4x456----| 
G|--88-888-6----x6x6x6x4x4x456----| 
D|--88-888-8----x8x8x8x6x6x678----| 
A|--------------------------------| 
E|--------------------------------| 

Pre-Chorus 

e|-4x4x456x6x6x6----| 
B|-4x4x456x6x6x6----| 
G|-4x4x456x6x6x6----| 
D|-6x6x678x8x8x8----| 
A|------------------| 
E|------------------| 

Chorus 

e|--66-666-6x6x6x6----x4x4x456x6x6x6----| 
B|--77-777-6x6x6x6-x3-x4x4x456x6x6x6----| 
G|--88-888-6x6x6x6----x4x4x456x6x6x6----| x2 
D|--88-888-8x8x8x8----x6x6x678x8x8x8----| 
A|--------------------------------------| 
E|--------------------------------------| 
Second time through stop here^ 


Bass break (echo effect on first chord) 

e|-6--6~----| 
B|-7--6~----| 
G|-8--6~----| 
D|-8--8~----| 
A|----------| 
E|----------| 

Verse 

Pre-Chorus 

Chorus 

Solo 
e|---------------------------------------/6-7-6-7-----777666444-------------------------| 
B|--888888777777\--4v~--2-44--24------------------4b5----------77------2-4-2------------| 
G|-----------------3v~--3-33--33---2b3----------------------------------------3-1-3-1b3-| 
D|--------------------------------------------------------------------------------------| 
A|--------------------------------------------------------------------------------------| 
E|--------------------------------------------------------------------------------------| 

Rhythm guitar for the solo is the same as the verse 

Bridge 

Bridge 
e|--------------------------------------------------------------------------| 
B|---------------------------------------------------------------2-2---2-4--| 
G|--3-1---1-------1-3-1---1-------3\--1-3-1---1-----------1-1--3-----3------| 
D|------4---4-1---------4---4-1-------------4---4-1---1-1-------------------| 
A|--------------------------------------------------------------------------| 
E|--------------------------------------------------------------------------| 

After the bridge it breaks straight into the outro Chorus, this is played the same way  
the Chorus. The lead guitar also kicks in with this riff near the end. 

Outro Lead 
e|--/11-6--777666444666--x3--777666444----6-4-----------| 
B|------------------------------------777-----7-6-4v~---| 
G|------------------------------------------------------| 
D|------------------------------------------------------| 
A|------------------------------------------------------| 
E|------------------------------------------------------| 


Well I hope you enjoy playing the song. Any corrections or questions then just leave a