Her Morning Elegance chords

Oren Lavie

Key: 

  			

Intro (palm mute) 
 | --------------------------------------------------------------------------------------------- 
 | --------------------------------------------------------------------------------------------- 
 | ------------3----3--------------------------------------------------------------------------- 
 | ------------------------------------------8---------8---------------------------------------- 
 | -------3-----3---------------------6----------6-------------(8)-(6)-(5)---------------------- 
 | ------------------------4-3-4--------------------------------6---6---6----------------------- 

 | ----------------------------------------------------------------------------------------- 
 | -----------------11------8~~------------------------------------------------------------- 
 | -----------------------------------------------------3-------------0~~------------------- 
 | -------10-------------------------------------------------------------------------------- 
 | -------------------------------------------------3--------------------------------------- 
 | ----------------------------------------------------------------------------------------- 


Cm    G#      D#7      A# 
 Sun been down for days 
Cm    G#      D#7      A# 
     A pretty flower in a vase 
Cm    G#      D#7      A# 
      A slipper by the fireplace 
Cm    G#      D#7      A# 
       A cello lying in its case 


Cm , G# , D#7 , A# (cello solo) 

Cm    G#   D#7  A# 
Soon she's down the stairs 
Cm    G#      D#7    A# 
  Her morning elegance she wears 
Cm    G#      D#7    A#        D7 
  The sound of water makes her dream 
A#            G       G/C 
Awoken by a cloud of steam 
            G             F 
She pours a daydream in a cup 
            G             A#  
A spoon of sugar sweetens up     


       Cm                G# 
And she fights for her life 
      D#7          A# 
as she puts on her coat 
Cm            G#            D#7 
And she fights for her life on the train 
A#           D#7 
She looks at the rain 
A# 
as it pours 
   Cm               G# 
And she fights for her life 
D#7            A# 
as she goes in a store 
Cm                    G# 
with a thought she has caught 
D#7 
by a thread 
    A#           D#7 
she pays for the bread 
        A# 
and she goes… 

Nobody knows 


( Cm , G# , D#7 , A# ) 
Sun been down for days 
A winter melody she plays 
The thunder makes her contemplate 
She hears a noise behind the gate 
Perhaps a letter with a dove 
Perhaps a stranger she could love 

And she fights for her life 
as she puts on her coat 
And she fights for her life on the train 
She looks at the rain 
as it pours 
And she fights for her life 
as she goes in a store 
with a thought she has caught 
by a thread 
she pays for the bread 
and she goes… 
Nobody knows 

And she fights for her life 
as she puts on her coat 
And she fights for her life on the train 
She looks at the rain 
as it pours 
And she fights for her life 
as she goes in a store 
where the people are pleasantly 
strange 
and counting the 
change 
as she goes… 
Nobody knows