Too Many Moons chords

Owen

Key: 

  			

Tuning: D A D A C# E 

th fret 





INTRO 
e|------------------------------------------------------------| 
B|-----------------------------------------------------0------| 
G|-0-------0-----0-------0-------0-------0-----0--------------| 
D|-----9-------9-----9-------9-------9-------9-----9-------9--| X2 
A|---7-------7-----9-------9-------7-------7-----9-------9----| 
E|-7-----7-------------0---------7-----7-------------0--------| 



VERSE 
e|------------------------------| 
B|------------------------------| 
G|-0-------0-----0-------0------| 
D|-----9-------9-----9-------9--| X7 
A|---7-------7-----9-------9----| 
E|-7-----7-------------0--------| 
   Au revoir bon chat... 
**(on 4th bar of the verse play the open B instead of the open G on the 3rd note from the end) 
    


TRANSITION TO Chorus 
e|--------------------------------------------------| 
B|-----------------------0---------------0----------| 
G|-0-------0-----0---------------0---------------0--| 
D|-----9-------9-----9-------9-------9-------9------| 
A|---7-------7-----9-------9-------8-------8--------| 
E|-7-----7-------------0-------0-------0-------0----| 
**(This part is a transition from the verse to the Chorus) 



Chorus 
e|---------------0------------------| 
B|----------------------------------| 
G|-------0---------------0-------0--| 
D|---6-------6-------6-------6------| 
A|-----7-------7-------7-------7----| 
E|-7-------7-------7-------7--------| 

e|----------------------------------| 
B|-------0---------------0----------| 
G|---------------0---------------0--| 
D|---9-------9-------9-------9------| 
A|-9-------9-------9-------9--------| 
E|-----0-------0-------0-------0----| 

e|---------------0------------------| 
B|----------------------------------| 
G|-------0---------------0-------0--| 
D|---6-------6-------6-------6------| 
A|-----7-------7-------7-------7----| 
E|-7-------7-------7-------7--------| 

e|------------------| 
B|-------0----------| 
G|---------------0--| 
D|---9-------9------| 
A|-9-------9--------| 
E|-----0-------0----| 
  (hold last note) 



PLAY INTRO X2 

PLAY VERSE 

PLAY TRANSITION 
**(One note difference) 
e|----------------------------------------------------| 
B|-----------------------0-----------------0----------| 
G|-0-------0-----0-----------------0---------------0--| 
D|-----9-------9-----9-------9---9-----9-------9------| 
A|---7-------7-----9-------9--------8--------8--------| 
E|-7-----7-------------0-------0---------0-------0----| 
  
PLAY Chorus 
**(Chorus goes on a little longer this time) 
e|---------------0------------------| 
B|----------------------------------| 
G|-------0---------------0-------0--| 
D|---6-------6-------6-------6------| 
A|-----7-------7-------7-------7----| 
E|-7-------7-------7-------7--------| 
   So dont wait up... 

e|----------------------------------| 
B|-------0---------------0----------| 
G|---------------0---------------0--| 
D|---9-------9-------9-------9------| 
A|-9-------9-------9-------9--------| 
E|-----0-------0-------0-------0----| 
   'Cause I'm not coming home... 

e|---------------0------------------| 
B|----------------------------------| 
G|-------0---------------0-------0--| 
D|---6-------6-------6-------6------| 
A|-----7-------7-------7-------7----| 
E|-7-------7-------7-------7--------| 
   'Til my demons get bored... 

e|----------------------------------| 
B|-------0---------------0----------| 
G|---------------0---------------0--| 
D|---9-------9-------9-------9------| 
A|-9-------9-------9-------9--------| 
E|-----0-------0-------0-------0----| 
   In mirrored eyes... 

e|---------------0------------------| 
B|----------------------------------| 
G|-------0---------------0-------0--| 
D|---6-------6-------6-------6------| 
A|-----7-------7-------7-------7----| 
E|-7-------7-------7-------7--------| 
   ...I see 
e|----------------------------------| 
B|-------0---------------0----------| 
G|---------------0---------------0--| 
D|---9-------9-------9-------9------| 
A|-9-------9-------9-------9--------| 
E|-----0-------0-------0-------0----| 
   Kerosene 
e|---------------0------------------| 
B|----------------------------------| 
G|-------0---------------0-------0--| 
D|---6-------6-------6-------6------| 
A|-----7-------7-------7-------7----| 
E|-7-------7-------7-------7--------| 
   And you've got my matches 
e|------------------| 
B|-------0----------| 
G|---------------0--| 
D|---9-------9------| 
A|-9-------9--------| 
E|-----0-------0----| 



BRIDGE 
e|-----------------------------------| 
B|-----------------------------------| 
G|-----------------------------------| 
D|-7----6---4-------4----------------| 
A|-4------------7-------7---5---4h7--| 
E|-4--4---4---4---0---0---0---0------| 

e|------------------------------------| 
B|------------------------------------| 
G|------------------------------------| 
D|---7---6---4-------4----------------| 
A|---------------7-------7---5---4p0--| 
E|-4---4---4---4---0---0---0---0------| 

e|-----------------------------------| 
B|-----------------------------------| 
G|-----------------------------------| 
D|-7----6---4-------4----------------| 
A|-4------------7-------7---5---4h7--| 
E|-4--4---4---4---0---0---0---0------| 

e|--------------------| 
B|--------------------| 
G|--------------------| 
D|--------------------| 
A|---0h2h4h7---4-0----| 
E|-2---------4-----0--| 

e|-------------------| 
B|-0-----------------| 
G|-0----4p2p0--0-----| 
D|-0-----------4--2--| 
A|-0-----------0-----| 
E|-5-----------0-----| 

PLAY INTRO X2 

e|------------------------------| 
B|------------------------------| 
G|-0-------0-----0-------0------| 
D|-----9-------9-----9-------9--| X3 
A|---7-------7-----9-------9----| 
E|-7-----7-------------0--------| 

e|-------------------------------------------------0----| 
B|-----------------------0-----------------0------------| 
G|-0-------0-----0-----------------0--------------------| 
D|-----9-------9-----9-------9---9-----9-------9--------| 
A|---7-------7-----9-------9--------8--------8---8------| 
E|-7-----7-------------0-------0---------0-----------7--| 

The studio version fades out with the bridge but I figured this is a good way to end it. 

************************************ 

| /   slide up 
| \   slide down 
| h   hammer-on 
| p   pull-off 
| ~   vibrato 
| +   harmonic 
| x   Mute note 
| b   Bend 
| pb  Pre-bend 
| br  Bend release 
| pbr Pre-bend release 
| brb Bend release bend 

************************************