I Give As Good As I Get (intro) chords

U.D.O.

  			

e|---------------------------0---------------0-------0-----0-----------| 
B|---0---0---1---1---0---0---3-----0---0---3---3---1---1---0-----------| 
G|-----0-------0-------0-----2-------0---------------------0-----------|(4x) 
D|-2-------2-------2---------0---2-------2-------2---------2-----------|
A|---------------------------------------------------------------------| 
E|---------------------------------------------------------------------| 


e|---------------------------------------------------------------------| 
B|-----3-------3-------3-------3-----0---0---0-0/1/0---0-0/1/0---------| 
G|---2---2---2---2---2---2---2---2-----0-----------------------2-------| 
D|-0-------0-------0-------0-------2-------2---------2-----------------| 
A|---------------------------------------------------------------------| 
E|---------------------------------------------------------------------| 


e|-----------------------------------0---0---0-------------------------| 
B|-----3-------3-------3-------3-----0---3---1-------------------------| 
G|---2---2---2---2---2---2---2---2---0---2---0-------------------------| 
D|-0-------0-------0-------0---------2---0---2-------------------------| 
A|-------------------------------------------3-------------------------| 
E|---------------------------------------------------------------------|