Ballad Of The Hip Death Goddess chords

Ultimate Spinach

Key: 

  			 

Play this 4 times. 

e|---------------------------------------------------------------| 
B|---------------------------------------------------------------| 
G|----------9~-----7---------------------------------------------| 
D|------------7h9-----9p7----------------------------------------| 
A|-------------------------10------------------------------------| 
E|---0-----------------------------------------------------------| 
     . 



------------------------------------------------ 
"Touch my hand and you will grow old" part 
------------------------------------------------ 


e|--------------------------------------3--------------1---------| 
B|-----------------------------------------3--------------1------| 
G|----------9~-----7---------------------------------------------| 
D|------------7h9-----9p7----------------------------------------| 
A|-------------------------10-------2---------------0------------| 
E|---0---------------------------\3--------------1---------------| 
     . 



Play the main lick twice then again "touch my hand" part. 


Play the main lick once and here goes the Chorus... 


---------------------------------------------- 
Chorus 
---------------------------------------------- 

                                  ...come let me take you... 
e|------------------------------------0-----3--------------------| 
B|------------------------------------x-----0------0-------------| 
G|----------9~-----7------------------0-----0------2-------------| 
D|------------7h9-----9p7-------------0-----0------2-------------| 
A|-------------------------10---------0-----2------0-------------| 
E|---0--------------------------------1-----3--------------------| 
     . 




at the last chord hit the G and D strings few times 



         i will keep you safe from all harm 
e|----0-----3----------------------------------------------------| 
B|----x-----0-----0----------------------------------------------| 
G|----0-----0-----2----------------------------------------------| 
D|----0-----0-----2----------------------------------------------| 
A|----0-----2-----0----------------------------------------------| 
E|----1-----3----------------------------------------------------| 




Now play the whole thing again. 

x4 Main lick 
Touch my hand 
x2 Main lick 
Touch my hand 
Main lick 
Chorus 



I guess theres no point on tabbing solo, you better improvise it at you own, after solo  
play whole thing again. 



To get main lick sound tastier you can try with adding a 5 note on B string like this 


e|---------------------------------------------------------------| 
B|----------5----------------------------------------------------| 
G|----------9~-----7---------------------------------------------| 
D|------------7h9-----9p7----------------------------------------| 
A|-------------------------10------------------------------------| 
E|---0-----------------------------------------------------------| 



Or even play it on higher strings like this 

e|---------------------------------------------------------------| 
B|---------5--------3--------------------------------------------| 
G|------------2h4------4p2---------------------------------------| 
D|--------------------------5------------------------------------| 
A|---------------------------------------------------------------| 
E|--0------------------------------------------------------------| 

************************************ 

| /   slide up 
| \   slide down 
| h   hammer-on 
| p   pull-off 
| ~   vibrato 
| +   harmonic 
| x   Mute note 
| b   Bend 
| pb  Pre-bend 
| br  Bend release 
| pbr Pre-bend release 
| brb Bend release bend 

************************************