Keys To The Kingdom chords

Unkle

Key: 

  			verse 1  
              Em  
   I shoot it low, kill the flow  

   Ruin myself out on the north shore  

   I make it one, watch the sun  
                                  Gm   
   Sink behind the trees with the keys to the kingdom  

Em               
   I shoot it high, let it fly  
                       Gm  
   Bury myself under a blue sky  
           Em  
   I see a scheme, make it clean  

   Drown in blue rivers under a muffled scream  

  
  G                         A                  Em  
   Call your number wishing I could make amends  
           G                            A                     Em  
   And I'm caught in a space between my head and my face again  

verse 2  
            Em  
   I hit it down, kill the sound  

   Ruin myself out on the northbound  

   I make it one, kill the sun  
                            Gm  
   Bury my disease with the keys to the kingdom  

  
  G                         A                  Em  
   Call your number wishing I could make amends  
            G                           A                   Em  
   And I'm caught in a space between my head and my face again  

BRIDGE  
              Em  
   I shoot it low  
    Gm    Am Em  
   (Shoot it low)  
            Gm  
   Kill the flow  
    Am    
   (Kill the)  
   Em  
   Ruin myself out on the north shore  

 
  G                         A                  Em  
   Call your number wishing I could make amends  
           G                            A                     Em  
   And I'm caught in a space between my head and my face again  
  G                         A                  Em  
   Call your number wishing I could make amends  
           G                            A                     Em  
   And I'm caught in a space between my head and my face again  

RIFFS  

Main Riff (Em)  
e|-------------------------0---------------------------0---------------------|  
B|-0-0-2-2-3-3-2-0-0-2-2-3-----0-0-2-2-3-3-2-0-0-2-2-3-----------------------|  
G|---------------------------2---------------------------2-------------------|  
D|---------------------------------------------------------------------------|  
A|---------------------------------------------------------------------------|  
E|---------------------------------------------------------------------------|  


Chorus Riff (In between 'call your number...' and 'and I'm caught in a space')  
e|---------------------------------------------------------------------------|  
B|---------------------------------------------------------------------------|  
G|---------------------------------------------------------------------------|  
D|-2-2-4-4-5-4-2-4-2-2-4-4-5-4-2-4-------------------------------------------|  
A|---------------------------------------------------------------------------|  
E|---------------------------------------------------------------------------|  

Bridge Riff  
e|-5-5-5-5-5-5-5-3-5-5-5-5-5-5-5-3-5-5-5-5-5-5-5-3-5-5-5-5-5-5-5-3-----------|  
B|---------------------------------------------------------------------------|  
G|---------------------------------------------------------------------------|  
D|---------------------------------------------------------------------------|  
A|---------------------------------------------------------------------------|  
E|---------------------------------------------------------------------------|  

Riff before Final Chorus (Em)  
e|-0-0-0-0-0-0-0-0-0-0-0-0-0-0-0-0-0-0-0-0-0-0-0-0-0-0-0-0-0-0-0-0-----------|  
B|---------------------------------------------------------------------------|  
G|---------------------------------------------------------------------------|  
D|---------------------------------------------------------------------------|  
A|---------------------------------------------------------------------------|  
E|---------------------------------------------------------------------------|  

e|-7-7-7-7-7-7-7-7-5-5-5-5-5-5-5-5-3-3-3-3-3-3-3-3-5-5-5-5-5-5-5-5-----------|  
B|---------------------------------------------------------------------------|  
G|---------------------------------------------------------------------------|  
D|---------------------------------------------------------------------------|  
A|---------------------------------------------------------------------------|  
E|---------------------------------------------------------------------------|  

e|-7-7-7-7-7-7-7-7-5-5-5-5-5-5-5-5-3-3-3-3-3-3-3-3-5-5-5-5-5-5-5-5-----------|  
B|---------------------------------------------------------------------------|  
G|---------------------------------------------------------------------------|  
D|---------------------------------------------------------------------------|  
A|---------------------------------------------------------------------------|  
E|---------------------------------------------------------------------------|