Embrace The Evil chords

Upon This Dawning

Key: 

  			









LEAD GUITAR Intro: 




     =       =       =       =  =           
A#|-------|-------|-------|----------| 
F#|--12---|--12---|--13---|--16-15---| 
C#|-------|-------|-------|----------| 
G#|-------|-------|-------|----------| 
D#|-------|-------|-------|----------| 
G#|-------|-------|-------|----------| 





LEAD GUITAR (Chorus) 



    =      =       =       =  =       = 
|--10---|--9----|--12---|--13-12---|--10---| 
|-------|-------|-------|----------|-------| 
|-------|-------|-------|----------|-------| 
|-------|-------|-------|----------|-------| 
|-------|-------|-------|----------|-------| 
|-------|-------|-------|----------|-------| 

   =       =       =  = 
|--9----|--12---|--13-15---| 
|-------|-------|----------| 
|-------|-------|----------| 
|-------|-------|----------| 
|-------|-------|----------| 
|-------|-------|----------| 





LEAD GUITAR (BREAK: 2:31-3:10) 




    =      =       =       =       =       =       =       =       =       =       = 
|--12--|--12---|--12---|--12---|--12---|--12---|--12---|--12---|--12---|--12---|--12---| 
|------|-------|-------|-------|-------|-------|-------|-------|-------|-------|-------| 
|------|-------|-------|-------|-------|-------|-------|-------|-------|-------|-------| 
|------|-------|-------|-------|-------|-------|-------|-------|-------|-------|-------| 
|------|-------|-------|-------|-------|-------|-------|-------|-------|-------|-------| 
|------|-------|-------|-------|-------|-------|-------|-------|-------|-------|-------| 

    =       =       =       =       = 
|--12---|--12---|--12---|--12---|--12---|-------|----------|-------|----------| 
|-------|-------|-------|-------|-------|--2----|--4--5----|--2----|--4--5----| 
|-------|-------|-------|-------|-------|-------|----------|-------|----------| 
|-------|-------|-------|-------|-------|-------|----------|-------|----------| 
|-------|-------|-------|-------|-------|-------|----------|-------|----------| 
|-------|-------|-------|-------|-------|-------|----------|-------|----------| 

   =       =  =       =       =  =  =  = 
|-------|----------|--0----|--5--5--3--3----| 
|--1----|--2--4----|-------|----------------| 
|-------|----------|-------|----------------| 
|-------|----------|-------|----------------| 
|-------|----------|-------|----------------| 
|-------|----------|-------|----------------| 





RHYTHM GUITAR  




A#|-------|-------|-------|-------|-------|-------|-------|-------| 
F |-------|-------|-------|-------|-------|-------|-------|-------| 
C#|-------|-------|-------|-------|-------|-------|-------|-------| 
G#|-------|-------|-------|-------|-------|-------|-------|-------| 
D#|-------|-------|-------|-------|-------|-------|-------|-------| 
G#|-------|-------|-------|-------|-------|-------|--0L---|--0----| 

                                                      
----------------------------------------------------| 
----------------------------------------------------| 
----------------------------------------------------| 
----------------------------------------------------| 
----------------------------------------------------| 
--0-----------0M-0--------12b---0M-0M-0M-0M-0L------| 

                                                      
----------------------------------------------------| 
----------------------------------------------------| 
----------------------------------------------------| 
----------------------------------------------------| 
----------------------------------------------------| 
--0-----0M-0--------0M-0M-8b----0M-0M-0M-0M-10b-----| 

                                                      
----------------------------------------------------| 
----------------------------------------------------| 
----------------------------------------------------| 
----------------------------------------------------| 
----------------------------------------------------| 
--0-----------0-----------12b---0M-0-----0M-0L------| 

                                                      
----------------------------------------------------| 
----------------------------------------------------| 
----------------------------------------------------| 
----------------------------------------------------| 
--------0M-0M-0M-0M-0M-0M-0M-0M-0M-0M-0M-0M-0M-0M---| 
--0-----1M-1M-1M-1M-1M-1M-1M-1M-1M-1M-1M-1M-1M-1M---| 

                                                      
----------------------------------------------------| 
----------------------------------------------------| 
----------------------------------------------------| 
----------------------------------------------------| 
----------------------------------------------------| 
--0-----------0M-0--------12b---0M-0M-0M-0M-0L------| 

                                                      
----------------------------------------------------| 
----------------------------------------------------| 
----------------------------------------------------| 
----------------------------------------------------| 
----------------------------------------------------| 
--0-----0M-0--------0M-0M-8b----0M-0M-0M-0M-10b-----| 

                                                      
----------------------------------------------------| 
----------------------------------------------------| 
----------------------------------------------------| 
----------------------------------------------------| 
----------------------------------------------------| 
--0-----------0-----------12b---0M-0-----0M-0-------| 

                                                      
----------------------------------------------------| 
----------------------------------------------------| 
----------------------------------------------------| 
----------------------------------------------------| 
--------------0M-0M-0M-0M-0M-0M-0M-0M-0M-0M-0M-0M---| 
--------------1M-1M-1M-1M-1M-1M-1M-1M-1M-1M-1M-1M---| 

                                                      
----------------------------------------------------| 
----------------------------------------------------| 
----------------------------------------------------| 
----------------------------------------------------| 
----------------------------------------------------| 
--0-----------0M-0--------12b---0M-0M-0M-0M-0L------| 

                                                      
----------------------------------------------------| 
----------------------------------------------------| 
----------------------------------------------------| 
----------------------------------------------------| 
----------------------------------------------------| 
--0-----0M-0--------0M-0M-8b----0M-0M-0M-0M-10b-----| 

                                                      
----------------------------------------------------| 
----------------------------------------------------| 
----------------------------------------------------| 
----------------------------------------------------| 
----------------------------------------------------| 
--0-----------0-----------12b---0M-0-----0M-0L------| 

                                                      
----------------------------------------------------| 
----------------------------------------------------| 
----------------------------------------------------| 
----------------------------------------------------| 
--------0M-0M-0M-0M-0M-0M-0M-0M-0M-0M-0M-0M-0M-0M---| 
--0-----1M-1M-1M-1M-1M-1M-1M-1M-1M-1M-1M-1M-1M-1M---| 

                                                      
----------------------------------------------------| 
----------------------------------------------------| 
----------------------------------------------------| 
----------------------------------------------------| 
----------------------------------------------------| 
--0-----------0M-0--------12b---0M-0M-0M-0M-0L------| 

                                                      
----------------------------------------------------| 
----------------------------------------------------| 
----------------------------------------------------| 
----------------------------------------------------| 
----------------------------------------------------| 
--0-----0M-0--------0M-0M-8b----0M-0M-0M-0M-10b-----| 

                                                      
----------------------------------------------------| 
----------------------------------------------------| 
----------------------------------------------------| 
----------------------------------------------------| 
----------------------------------------------------| 
--0-----------0-----------12b---0M-0-----0M-0L------| 

                                                              
----------------------------------------------------|-------| 
----------------------------------------------------|-------| 
----------------------------------------------------|-------| 
----------------------------------------------------|-------| 
--------0M-0M-0M-0M-0M-0M-0M-------0M-------0M------|-------| 
--0-----1M-1M-1M-1M-1M-1M-2M-------2M-------2M------|-------| 

                                                      
----------------------------------------------------| 
----------------------------------------------------| 
----------------------------------------------------| 
--0M-0M-0M-0M-0M-0M-0M-0M-------0M-0M-0M-0M-0M------| 
--0M-0M-0M-0M-0M-0M-0M-0M-------0M-0M-0M-0M-0M------| 
--0M-0M-0M-0M-0M-0M-0M-0M-------0M-0M-0M-0M-0M------| 

                          =       =       =       =   
----------------------------------------------------| 
----------------------------------------------------| 
----------------------------------------------------| 
--------0M-0M-0M-0M-0M-0M-------0M-0M-0M-0M-0M------| 
--------0M-0M-0M-0M-0M-0M-------0M-0M-0M-0M-0M------| 
--------0M-0M-0M-0M-0M-0M-------0M-0M-0M-0M-0M------| 

     =       =       =       =       =       =        
----------------------------------------------------| 
----------------------------------------------------| 
----------------------------------------------------| 
--0M-0M-0M----0M-0M-0M-0M-------0M-0M-0M-0M-0M-0M---| 
--0M-0M-0M----0M-0M-0M-0M-------0M-0M-0M-0M-0M-0M---| 
--0M-0M-0M----0M-0M-0M-0M-------0M-0M-0M-0M-0M-0M---| 

=       =       =       =       =       =             
----------------------------------------------------| 
----------------------------------------------------| 
----------------------------------------------------| 
--------0M-0M-0M-0M-0M-0M-0M-0M----0M-0M------------| 
--------0M-0M-0M-0M-0M-0M-0M-0M----0M-0M------------| 
--------0M-0M-0M-0M-0M-0M-0M-0M----0M-0M------------| 

                                                      
----------------------------------------------------| 
----------------------------------------------------| 
----------------------------------------------------| 
--------------------------------0M-0M-0M-0M-0M------| 
--------------------------------0M-0M-0M-0M-0M------| 
--0-----------------------------0M-0M-0M-0M-0M------| 

                                                      
----------------------------------------------------| 
----------------------------------------------------| 
----------------------------------------------------| 
--------0M-0M-0M-0M-0M-0M-------0M-0M-0M-0M-0M------| 
--------0M-0M-0M-0M-0M-0M-------0M-0M-0M-0M-0M------| 
--------0M-0M-0M-0M-0M-0M-------0M-0M-0M-0M-0M------| 

                                                      
----------------------------------------------------| 
----------------------------------------------------| 
----------------------------------------------------| 
--0M-0M-0M----0M-0M-0M-0M-------0M-0M-0M-0M-0M-0M---| 
--0M-0M-0M----0M-0M-0M-0M-------0M-0M-0M-0M-0M-0M---| 
--0M-0M-0M----0M-0M-0M-0M-------0M-0M-0M-0M-0M-0M---| 

                                                                                 
----------------------------------------------------|-------|----------|-------| 
----------------------------------------------------|-------|----------|-------| 
----------------------------------------------------|-------|----------|-------| 
--------0M-0M-0M-0M-0M-0M-0M-0M----0M-0M----0M-0M---|-------|----------|-------| 
--------0M-0M-0M-0M-0M-0M-0M-0M----0M-0M----0M-0M---|-------|----------|-------| 
--------0M-0M-0M-0M-0M-0M-0M-0M----0M-0M----0M-0M---|--0----|--0--3----|--2----| 

                                                                               
-------|----------|----------|-------|-------|-------|-------|-------|-------| 
-------|----------|----------|-------|-------|-------|-------|-------|-------| 
-------|----------|----------|-------|-------|-------|-------|-------|-------| 
-------|----------|----------|-------|-------|--8----|--7----|--0----|--3----| 
-------|----------|----------|-------|-------|--8----|--7----|--0----|--3----| 
--7----|--0--2----|--3--0----|--3----|--7----|--8----|--7----|--0----|--3----| 

                                                                                 
-------|-------|-------|-------|-------|-------|-------|-------|-------|-------| 
-------|-------|-------|-------|-------|-------|-------|-------|-------|-------| 
-------|-------|-------|-------|-------|-------|-------|-------|-------|-------| 
--8----|--7----|--0----|--3----|-------|-------|-------|-------|-------|-------| 
--8----|--7----|--0----|--3----|-------|-------|-------|-------|-------|-------| 
--8----|--7----|--0----|--3----|--8----|--7----|--0----|--3----|--8----|--7----| 

 =       =       =       =       =       =       =       =    
-------|----------------------------------------------------| 
-------|----------------------------------------------------| 
-------|----------------------------------------------------| 
-------|----------------------------------------------------| 
-------|----------------------------------------------------| 
--0----|--3-----------------------3M-------3M-------2M------| 

    =       =       =       =       =       =       = 
----------------------------------------------------| 
----------------------------------------------------| 
----------------------------------------------------| 
--------------------------------------------0M-0M---| 
--------------------------------------------0M-0M---| 
--0L----------------------------------0-----0M-0M---| 

       =                                              
----------------------------------------------------| 
----------------------------------------------------| 
----------------------------------------------------| 
--2-----0M----0M----3-----3-----0M-0M---------------| 
--2-----0M----0M----3-----3-----0M-0M---------------| 
--2-----0M----0M----3-----3-----0M-0M-0-------------| 

                                                                              
----------------------------------------------------------------------------| 
----------------------------------------------------------------------------| 
----------------------------------------------------------------------------| 
--------------------------------------------------------0M-0M-0M-0M---------| 
--------------------------------------------------------0M-0M-0M-0M---------| 
--0-----------------------------------------------------0M-0M-0M-0M---------| 

                              
----------------------------| 
----------------------------| 
----------------------------| 
----------------------------| 
--------------0M-0M---------| 
-----0--0-----1M-1M----0M---| 

          =       =       =                                                   
----------------------------------------------------------------------------| 
----------------------------------------------------------------------------| 
----------------------------------------------------------------------------| 
--------------------------------------0M-0M-0M-0M-------0M-0M-0M-0M---------| 
--------------------------------------0M-0M-0M-0M-------0M-0M-0M-0M---------| 
--0-----------------------------------0M-0M-0M-0M-------0M-0M-0M-0M---------| 

          =       =       =   
----------------------------| 
----------------------------| 
----------------------------| 
-----------------------3----| 
----------------------------| 
----------------------------| 

     =       =       =       =       =       =        
----------------------------------------------------| 
----------------------------------------------------| 
----------------------------------------------------| 
--------------------------------------0M-0M-0M-0M---| 
--------------------------------------0M-0M-0M-0M---| 
--0-----------------------------------0M-0M-0M-0M---| 

=       =       =       =       =       =       = 
----------------------------------------------------| 
----------------------------------------------------| 
----------------------------------------------------| 
--------0M-0M-0M-0M-0M-0M---------------------------| 
--------0M-0M-0M-0M-0M-0M-0M----0M----------0M------| 
--------0M-0M-0M-0M-0M-0M-1M----1M----------1M------| 


----------------------------------------------------------------------------| 
----------------------------------------------------------------------------| 
----------------------------------------------------------------------------| 
--------------------------------------0M-0M-0M-0M-------0M-0M-0M-0M---------| 
--------------------------------------0M-0M-0M-0M-------0M-0M-0M-0M---------| 
--0-----------------------------------0M-0M-0M-0M-------0M-0M-0M-0M---------| 


-------|----------|----------|-------|-------|-------|-------|-------|-------| 
-------|----------|----------|-------|-------|-------|-------|-------|-------| 
-------|----------|----------|-------|-------|-------|-------|-------|-------| 
-------|----------|----------|-------|-------|--8----|--7----|--0----|--3----| 
-------|----------|----------|-------|-------|--8----|--7----|--0----|--3----| 
-------|--0--2----|--3--0----|--3----|--7----|--8----|--7----|--0----|--3----| 


-------|-------|-------|-------|-------|-------|-------|-------|-------|-------| 
-------|-------|-------|-------|-------|-------|-------|-------|-------|-------| 
-------|-------|-------|-------|-------|-------|-------|-------|-------|-------| 
--8----|--7----|--0----|--3----|-------|-------|-------|-------|-------|-------| 
--8----|--7----|--0----|--3----|-------|-------|-------|-------|-------|-------| 
--8----|--7----|--0----|--3----|--8----|--7----|--0----|--3----|--8----|--7----| 


-------|----------------------------------------------------|-------|-------| 
-------|----------------------------------------------------|-------|-------| 
-------|----------------------------------------------------|-------|-------| 
-------|----------------------------------------------------|-------|-------| 
-------|----------------------------------------------------|-------|-------| 
--0----|--3-----------------------3M-------3M-------2M------|--0L---|--0L---| 


-------|----|----|----|----|----|----|----|----|----|----|----|----|----|----| 
-------|----|----|----|----|----|----|----|----|----|----|----|----|----|----| 
-------|----|----|----|----|----|----|----|----|----|----|----|----|----|----| 
-------|----|----|----|----|----|----|----|----|----|----|----|----|----|----| 
-------|----|----|----|----|----|----|----|----|----|----|----|----|----|----| 
--0----|----|----|----|----|----|----|----|----|----|----|----|----|----|----| 


----|----|----|-------|-------|-------| 
----|----|----|-------|-------|-------| 
----|----|----|-------|-------|-------| 
----|----|----|-------|-------|-------| 
----|----|----|-------|-------|-------| 
----|----|----|--11M--|--11M--|--7M---| 


----------------------------------------------------|-------|-------|-------| 
----------------------------------------------------|-------|-------|-------| 
----------------------------------------------------|-------|-------|-------| 
----------------------------------------------------|--8----|--7----|--0----| 
----------------------------------------------------|--8----|--7----|--0----| 
--7-------------------------------------------------|--8----|--7----|--0----| 


-------|-------|-------|-------|-------|-------|-------|-------|-------|-------| 
-------|-------|-------|-------|-------|-------|-------|-------|-------|-------| 
-------|-------|-------|-------|-------|-------|-------|-------|-------|-------| 
--3----|--8----|--7----|--0----|--3----|-------|-------|-------|-------|-------| 
--3----|--8----|--7----|--0----|--3----|-------|-------|-------|-------|-------| 
--3----|--8----|--7----|--0----|--3----|--8----|--7----|--0----|--3----|--8----| 


-------|-------|----------------------------------------------------|----|----|| 
-------|-------|----------------------------------------------------|----|----|| 
-------|-------|----------------------------------------------------|----|----|| 
-------|-------|----------------------------------------------------|----|----|| 
-------|-------|----------------------------------------------------|----|----|| 
--7----|--0----|--3-----------------------3M-------2M-------0M------|----|----|| 





BASS 





C#|-------|-------|-------|-------|-------|-------|-------|-------| 
G#|-------|-------|-------|-------|-------|-------|-------|-------| 
D#|-------|-------|-------|-------|-------|-------|-------|-------| 
G#|-------|-------|-------|-------|-------|-------|--0L---|--0----| 

                                                      
----------------------------------------------------| 
----------------------------------------------------| 
----------------------------------------------------| 
--0-----------0--0--------12b---0--0--0--0--0L------| 

                                                      
----------------------------------------------------| 
----------------------------------------------------| 
----------------------------------------------------| 
--0-----0--0--------0--0--8b----0--0--0--0--10b-----| 

                                                      
----------------------------------------------------| 
----------------------------------------------------| 
----------------------------------------------------| 
--0-----------0--0--------12b---0--0-----0--0L------| 

                                                      
----------------------------------------------------| 
----------------------------------------------------| 
----------------------------------------------------| 
--0-----1--1--1--1--1--1--1--1--1--1--1--1--1--1----| 

                                                      
----------------------------------------------------| 
----------------------------------------------------| 
----------------------------------------------------| 
--0-----------0--0--------12b---0--0--0--0--0L------| 

                                                      
----------------------------------------------------| 
----------------------------------------------------| 
----------------------------------------------------| 
--0-----0--0--------0--0--8b----0--0--0--0--10b-----| 

                                                      
----------------------------------------------------| 
----------------------------------------------------| 
----------------------------------------------------| 
--0-----------0--0--------12b---0--0-----0--0-------| 

                                                      
----------------------------------------------------| 
----------------------------------------------------| 
----------------------------------------------------| 
--------------1--1--1--1--1--1--1--1--1--1--1--1----| 

                                                      
----------------------------------------------------| 
----------------------------------------------------| 
----------------------------------------------------| 
--0-----------0--0--------12b---0--0--0--0--0L------| 

                                                      
----------------------------------------------------| 
----------------------------------------------------| 
----------------------------------------------------| 
--0-----0--0--------0--0--8b----0--0--0--0--10b-----| 

                                                      
----------------------------------------------------| 
----------------------------------------------------| 
----------------------------------------------------| 
--0-----------0--0--------12b---0--0-----0--0L------| 

                                                      
----------------------------------------------------| 
----------------------------------------------------| 
----------------------------------------------------| 
--0-----1--1--1--1--1--1--1--1--1--1--1--1--1--1----| 

                                                      
----------------------------------------------------| 
----------------------------------------------------| 
----------------------------------------------------| 
--0-----------0--0--------12b---0--0--0--0--0L------| 

                                                      
----------------------------------------------------| 
----------------------------------------------------| 
----------------------------------------------------| 
--0-----0--0--------0--0--8b----0--0--0--0--10b-----| 

                                                      
----------------------------------------------------| 
----------------------------------------------------| 
----------------------------------------------------| 
--0-----------0--0--------12b---0--0-----0--0L------| 

                                                              
----------------------------------------------------|-------| 
----------------------------------------------------|-------| 
----------------------------------------------------|-------| 
--0-----1--1--1--1--1--1--2--------2--------2-------|-------| 

                                                      
----------------------------------------------------| 
----------------------------------------------------| 
----------------------------------------------------| 
--0--0--0--0--0--0--0--0--------0--0--0--0--0-------| 

                          =       =       =       =   
----------------------------------------------------| 
----------------------------------------------------| 
----------------------------------------------------| 
--------0--0--0--0--0--0--------0--0--0--0--0-------| 

     =       =       =       =       =       =        
----------------------------------------------------| 
----------------------------------------------------| 
----------------------------------------------------| 
--0--0--0-----0--0--0--0--------0--0--0--0--0--0----| 

=       =       =       =       =       =             
----------------------------------------------------| 
----------------------------------------------------| 
----------------------------------------------------| 
--------0--0--0--0--0--0--0--0-----0--0-----0--0----| 

                                                      
----------------------------------------------------| 
----------------------------------------------------| 
----------------------------------------------------| 
--0-----------------------------0--0--0--0--0-------| 

                                                      
----------------------------------------------------| 
----------------------------------------------------| 
----------------------------------------------------| 
--------0--0--0--0--0--0--------0--0--0--0--0-------| 

                                                      
----------------------------------------------------| 
----------------------------------------------------| 
----------------------------------------------------| 
--0--0--0-----0--0--0--0--------0--0--0--0--0--0----| 

                                                                                 
----------------------------------------------------|-------|----------|-------| 
----------------------------------------------------|-------|----------|-------| 
----------------------------------------------------|-------|----------|-------| 
--------0--0--0--0--0--0--0--0-----0--0-----0--0----|--0----|--0--3----|--2----| 

                                                                               
-------|----------|----------|-------|-------|-------|-------|-------|-------| 
-------|----------|----------|-------|-------|-------|-------|-------|-------| 
-------|----------|----------|-------|-------|-------|-------|-------|-------| 
--7----|--0--2----|--3--0----|--3----|--7----|--8----|--7----|--0----|--3----| 

                                                                                 
-------|-------|-------|-------|-------|-------|-------|-------|-------|-------| 
-------|-------|-------|-------|-------|-------|-------|-------|-------|-------| 
-------|-------|-------|-------|-------|-------|-------|-------|-------|-------| 
--8----|--7----|--0----|--3----|--8----|--7----|--0----|--3----|--8----|--7----| 

                            =       =       =       =       = 
-------|----------------------------------------------------| 
-------|----------------------------------------------------| 
-------|----------------------------------------------------| 
--0----|--3-----------------------3--------3--------2-------| 

       =       =       =       =       =       =      
----------------------------------------------------| 
----------------------------------------------------| 
----------------------------------------------------| 
--0L----------------------------------0-----0--0----| 

  =       =       =       =       =                   
----------------------------------------------------| 
----------------------------------------------------| 
----------------------------------------------------| 
--2-----0-----0-----3-----3-----0--0--0-------------| 

                                                                              
----------------------------------------------------------------------------| 
----------------------------------------------------------------------------| 
----------------------------------------------------------------------------| 
--0-----------------------------------------------------0--0--0--0----------| 

                              
----------------------------| 
----------------------------| 
----------------------------| 
-----0--0-----1--1-----0----| 

                                     =       =       =                        
----------------------------------------------------------------------------| 
----------------------------------------------------------------------------| 
----------------------------------------------------------------------------| 
--0-----------------------------------0--0--0--0--------0--0--0--0----------| 

                                     =       =       =        
-------|----------------------------------------------------| 
-------|----------------------------------------------------| 
-------|----------------------------------------------------| 
-------|--0-----------------------------------0--0--0--0----| 

=       =       =       =       =       =       =     
----------------------------------------------------| 
----------------------------------------------------| 
----------------------------------------------------| 
--------0--0--0--0--0--0--1-----1-----------1-------| 

   =       =       =       =       =       = 
----------------------------------------------------------------------------| 
----------------------------------------------------------------------------| 
----------------------------------------------------------------------------| 
--0-----------------------------------0--0--0--0--------0--0--0--0----------| 


----|----------|----------|-------|-------|-------|-------|-------|-------| 
----|----------|----------|-------|-------|-------|-------|-------|-------| 
----|----------|----------|-------|-------|-------|-------|-------|-------| 
----|--0--2----|--3--0----|--3----|--7----|--8----|--7----|--0----|--3----| 


-------|-------|-------|-------|-------|-------|-------|-------|-------|-------| 
-------|-------|-------|-------|-------|-------|-------|-------|-------|-------| 
-------|-------|-------|-------|-------|-------|-------|-------|-------|-------| 
--8----|--7----|--0----|--3----|--8----|--7----|--0----|--3----|--8----|--7----| 


-------|----------------------------------------------------|-------|-------| 
-------|----------------------------------------------------|-------|-------| 
-------|----------------------------------------------------|-------|-------| 
--0----|--3-----------------------3--------3--------2-------|--0L---|--0L---| 


-------|-------|-------|-------|-------|-------|-------|-------|-------|-------| 
-------|-------|-------|-------|-------|-------|-------|-------|-------|-------| 
-------|-------|-------|-------|-------|-------|--5L---|--5L---|--5L---|--5L---| 
--0----|-------|-------|-------|-------|-------|-------|-------|-------|-------| 


-------|-------|-------|-------|-------|-------|-------|-------|-------|-------| 
-------|-------|-------|-------|-------|-------|-------|-------|-------|-------| 
--5L---|--5L---|--5L---|--5----|--5L---|--5----|--8L---|--8----|-------|-------| 
-------|-------|-------|-------|-------|-------|-------|-------|--11---|--11---| 


-------|----------------------------------------------------|-------|-------| 
-------|----------------------------------------------------|-------|-------| 
-------|----------------------------------------------------|-------|-------| 
--7----|--7-------------------------------------------------|--8----|--7----| 


-------|-------|-------|-------|-------|-------|-------|-------|-------|-------| 
-------|-------|-------|-------|-------|-------|-------|-------|-------|-------| 
-------|-------|-------|-------|-------|-------|-------|-------|-------|-------| 
--0----|--3----|--8----|--7----|--0----|--3----|--8----|--7----|--0----|--3----| 


-------|-------|-------|----------------------------------------------------| 
-------|-------|-------|----------------------------------------------------| 
-------|-------|-------|----------------------------------------------------| 
--8----|--7----|--0----|--3-----------------------3--------2--------0-------| 


----|----|| 
----|----|| 
----|----|| 
----|----|| 
    	

Top songs from Upon This Dawning