Chameleon chords

Warrant

  			
Intro 
G|-------\4-----|-------\4-----|------------|-----------------|------------|------------------| 
D|---5-7----7-5-|---5-7----7-5-|---------9--|---------5-------|---------9--|---------5--------| 
A|--------------|--------------|---5h7-7----|---5h7-7-----5h7-|---5h7-7----|---5h7-7-----5h7--| 
E|-3------------|-3------------|-0----------|-x---------x-----|-0----------|-x---------x------| 

G|-------\4-----|-------------------|---------\4-----|-------\4------| 
D|---5-7----7-5-|---5h7-5--10-9-7---|-----5-7----7-5-|---5-7----7-5--| 
A|--------------|-3-----------------|----------------|---------------| 
E|-3------------|-----------------3-|-(3)------------|-3-------------| 

Verse x2 
G|-------\4-----|-------\4-----|------------|-----------------|------------|------------------| 
D|---5-7----7-5-|---5-7----7-5-|---------9--|---------5-------|---------9--|---------5--------| 
A|--------------|--------------|---5h7-7----|---5h7-7-----5h7-|---5h7-7----|---5h7-7-----5h7--| 
E|-3------------|-3------------|-0----------|-x---------x-----|-0----------|-x---------x------| 

G|-------\4-----|-------------------|---------\4-----|-------\4------| 
D|---5-7----7-5-|---5h7-5--10-9-7---|-----5-7----7-5-|---5-7----7-5--| 
A|--------------|-3-----------------|----------------|---------------| 
E|-3------------|-----------------3-|-(3)------------|-3-------------| 

Chorus 
G|-----------------|-----------------|-----------------|------------------| 
D|-----------------|-----------------|-----------------|------------------| 
A|-5-5-5---3-3-3-3-|-----------------|-----------------|-3-3-3-3-3-3-3-3--| 
E|-------7---------|-3-3-3-3-3-3-3-3-|-1-1-1-1-1-1-1-1-|------------------| 

G|-----------------|-----------------|-----------------|------------------| 
D|-----------------|-----------------|-----------------|------------------| 
A|-5-5-5---3-3-3-3-|-----------------|-----------------|-3----------------| 
E|-------7---------|-3-3-3-3-3-3-3-3-|-1---------------|------------------| 

G|-------\4-----|-------\4-----| 
D|---5-7----7-5-|---5-7----7-5-| 
A|--------------|--------------| 
E|-3------------|-3------------| 

Verse x2 
G|-------\4-----|-------\4-----|------------|-----------------|------------|------------------| 
D|---5-7----7-5-|---5-7----7-5-|---------9--|---------5-------|---------9--|---------5--------| 
A|--------------|--------------|---5h7-7----|---5h7-7-----5h7-|---5h7-7----|---5h7-7-----5h7--| 
E|-3------------|-3------------|-0----------|-x---------x-----|-0----------|-x---------x------| 

G|-------\4-----|-------------------|---------\4-----|-------\4------| 
D|---5-7----7-5-|---5h7-5--10-9-7---|-----5-7----7-5-|---5-7----7-5--| 
A|--------------|-3-----------------|----------------|---------------| 
E|-3------------|-----------------3-|-(3)------------|-3-------------| 

Chorus 
G|-----------------|-----------------|-----------------|------------------| 
D|-----------------|-----------------|-----------------|------------------| 
A|-5-5-5---3-3-3-3-|-----------------|-----------------|-3-3-3-3-3-3-3-3--| 
E|-------7---------|-3-3-3-3-3-3-3-3-|-1-1-1-1-1-1-1-1-|------------------| 

G|-----------------|-----------------|-----------------|------------------|------------------| 
D|-----------------|-----------------|-----------------|------------------|------------------| 
A|-5-5-5---3-3-3-3-|-----------------|-----------------|-3----------------|------------------| 
E|-------7---------|-3-3-3-3-3-3-3-3-|-1---------------|------------------|-3-3-3-3-3-3-3-3--| 

Bridge x4 
G|----------|----------|----------|-----------|----------|----------|----------|-----------| 
D|----------|----------|----------|-----------|----------|----------|----------|-----------| 
A|----------|----------|----------|-----------|----------|----------|----------|-----------| 
E|-0-0----0-|-2-2----2-|-3-3----3-|-5-5----5--|-0-0----0-|-2-2----2-|-3-3----3-|-5-5----5--| 

G|----------|----------|----------|-----------| 
D|----------|----------|----------|-----------| 
A|----------|----------|----------|-----------| 
E|-0-0----0-|-2-2----2-|-3-3----3-|-5-5----5--| 

G|-----------------|-----------------|-----------------|-----------------|----------| 
D|-----------------|-----------------|-----------------|-----------------|----------| 
A|-----------------|-----------------|-----------------|-----------------|----------| 
E|-0-0-0-0-0-0-0-0-|-2-2-2-2-2-2-2-2-|-3-3-3-3-3-3-3-3-|-5-5-5-5-5-5-5-5-|-3--------| 

G|-------\4-----|-------\4-----| 
D|---5-7----7-5-|---5-7----7-5-| 
A|--------------|--------------| 
E|-3------------|-3------------| 

Verse x2 
G|-------\4-----|-------\4-----|------------|-----------------|------------|------------------| 
D|---5-7----7-5-|---5-7----7-5-|---------9--|---------5-------|---------9--|---------5--------| 
A|--------------|--------------|---5h7-7----|---5h7-7-----5h7-|---5h7-7----|---5h7-7-----5h7--| 
E|-3------------|-3------------|-0----------|-x---------x-----|-0----------|-x---------x------| 

G|-------\4-----|--------------| 
D|---5-7----7-5-|--------------| 
A|--------------|-3------------| 
E|-3------------|--------------| 

Chorus 
G|-----------------|-----------------|-----------------|------------------| 
D|-----------------|-----------------|-----------------|------------------| 
A|-5-5-5---3-3-3-3-|-----------------|-----------------|-3-3-3-3-3-3-3-3--| 
E|-------7---------|-3-3-3-3-3-3-3-3-|-1-1-1-1-1-1-1-1-|------------------| 

G|-----------------|-----------------|-----------------|------------------| 
D|-----------------|-----------------|-----------------|------------------| 
A|-5-5-5---3-3-3-3-|-----------------|-----------------|-3-3-3-3-3-3-3-3--| 
E|-------7---------|-3-3-3-3-3-3-3-3-|-1-1-1-1-1-1-1-1-|------------------| 

Outro / Solo 
G|-----------------|-----------------|-----------------|-----------------| 
D|-----------------|-----------------|-----------------|-----------------| 
A|-5-5-5-5-3-3-3-3-|-2---------------|-----------------|-3-3-3-3-3-3-3-3-| 
E|-----------------|---2-2-2-2-2-2-2-|-0-0-0-0-0-0-0-0-|-----------------| 


************************************ 

| x   Dead note 
| (n) Ghost note 
| h   Hammer-on 
| \   Slide down 

************************************