Majestic (acoustic) chords

Wax Fang

Key: 

  			


Intro:  

D G A D 
D G A D  
Bm D Bm A  
D G A D  

E|-------------------------------------------------------------------| 
B|-----5/7-7777-7777-7777-5-3-3p0~~~~~-3/5-5555-5555-555-3-2---------| 
G|-7~~~------------------------------------------------------4-2~~---| 
D|-------------------------------------------------------------------| 
A|-------------------------------------------------------------------| 
E|-------------------------------------------------------------------| 

E|-----------------------------------| 
B|------5/7-7777-7777-7777--5-3-3p0~-| 
G|-7~~~~-----------------------------| 
D|-----------------------------------| 
A|-----------------------------------| 
E|-----------------------------------| 

E|---------------------------------------| 
B|-2-3~~~--3/5-5555-5555-555-3-2---------| 
G|-------------------------------4-2~~~--| 
D|---------------------------------------| 
A|---------------------------------------| 
E|---------------------------------------|  


verse 1:  

  D                                                 G 
A sight for sore eyes to the blind would be awful majestic, 
         A                                              D 
It would be the most beautiful thing that they ever had seen, 
         D                                                      G      
It would cause such surprise, it would make all of their minds electric, 
          A                                                   D 
How could anyone tell them that some things are not what they seem 


verse 2:  

   Bm                                           D                          
In such disbelief I thought I was asleep when I met you 
   Bm                                             A 
My heart liquefied and I sighed oh this must be a dream 
     D                                                             G 
If I forget to set the alarm and sleep on through the dawn don't remind me 
    A                                          D           
I'd rather be dreaming of someone than living alone 


Instrumental Break 1:  

Bm D Bm A 
Bm D Bm A 


verse 3:  

          D                                                    G 
If you're searching the lines for a point well you've probably missed it 
          A                                 D 
There was never anything there in the first place....... 


Instrumental Break 2/Outro:  

D G A D 
D G A D  
Bm D Bm A  
D G A D 


(end)