Crash (acoustic) chords

Wayward Daughter

Key: 

  			 
 


Structure: 
Intro 
Verse 
Pre Chorus(1) 
Verse 
Pre Chorus(2) 
Chorus 
Verse 
Pre Chorus(3) 
Chorus 


Intro/Verse 
D |------0---------0----------0---------0-------------------------------------| 
A |------0---------0----------0---------0-------------------------------------| 
F#|---14--------10----------9---------7---------------------------------------| 
D |---------------------------------------------------------------------------| repeat for a while 
A |---------------------------------------------------------------------------| 
D |-14--------11----------9---------7-----------------------------------------| 
   |  8x |  |  8x  |    |  8x  |   |  8x  | 

Pre Chorus(1) 
D |------0--------0---------0---------------0--------0--------0---------------| 
A |------0--------0---------0---------------0--------0--------0---------------| 
F#|---10--------9---------7--------------10--------9--------7-----------------| 
D |---------------------------------------------------------------------------| 
A |---------------------------------------------------------------------------| 
D |-11--------9---------7-------------11---------9--------7-------------------| 
   |  4x  |  |  4x |   |  8x  |      |  4x  |   |  4x |  |  8x  | 

Pre Chorus(2/3) 
D |------0--------0---------0----------0--------0--------0----0-0--0----------| 
A |------0--------0---------0----------0--------0--------0----0-0--0----------| 
F#|---10--------9---------7---------10--------9--------7------7/9--9----------| 
D |-----------------------------------------------------------0-0--0----------| 
A |-----------------------------------------------------------0-0--0----------| 
D |-11--------9---------7--------11---------9--------7--------7/9--9----------| 
   |  4x  |  |  4x |   |  8x |  |   4x  |  |  4x |  | 6x |     

Chorus (strumming) 
D |-0---------0---------0----0---0----------0---------0---------0----0---0----| 
A |-0---------0---------0----0---0----------0---------0---------0----0---0----| 
F#|-0---------7---------10---9---7----------0---------7---------10---9---7----| 
D |-0---------0---------0----0---0----------0---------0---------0----0---0----| 
A |-0---------0---------0----0---0----------0---------0---------0----0---0----| 
D |-0---------7---------11---9---7----------0---------7---------11---9---7----| 




************************************ 

| /   slide up 
| \   slide down 
| h   hammer-on 
| p   pull-off 
| ~   vibrato 
| +   harmonic 
| x   Mute note 
| b   Bend 
| pb  Pre-bend 
| br  Bend release 
| pbr Pre-bend release 
| brb Bend release bend 

************************************