Book Of James chords

We Are Augustines

  			Love this song! Probably my favorite by We are Augustines but I Haven't found a tab for 
this anywhere so I thought i would give it a try. Really easy. two guitars, just listen 
to the song and you will figure it out. Im pretty certain its almost right on. Enjoy! 


. 

intro 
Guitar I: through first verse 
E|-----------------------------------------0-0-0-0-0-0-0-0---------------------| 
B|-----------------------------------------0-0-0-0-0-0-0-0---------------------| 
G|---4-4-4-4-4-4-4-4---1-1-1-1-1-1-1-1---2-2-2-2-2-2-2-2--1-1-1-1-1-1-1-1------| 
D|---4-4-4-4-4-4-4-4---2-2-2-2-2-2-2-2---2-2-2-2-2-2-2-2--2-2-2-2-2-2-2-2------| (x5) 
A|---2-2-2-2-2-2-2-2---2-2-2-2-2-2-2-2---0-0-0-0-0-0-0-0--2-2-2-2-2-2-2-2------| 
E|----------------------0-0-0-0-0-0-0-0---------------------0-0-0-0-0-0-0-0----| 

"He stood there in his shoes":   Just strum this until the chorus begins 
E|-0-0-0-0-0-0-0-0-0-0-0-0-0-0-0-0-0-0-0-0-0-0-0-0-0-0-0-0-0-0-0-0-------------| 
B|-0-0-0-0-0-0-0-0-0-0-0-0-0-0-0-0-0-0-0-0-0-0-0-0-0-0-0-0-0-0-0-0-------------| 
G|-2-2-2-2-2-2-2-2-2-2-2-2-2-2-2-2-2-2-2-2-2-2-2-2-2-2-2-2-2-2-2-2-- ----------| 
D|-2-2-2-2-2-2-2-2-2-2-2-2-2-2-2-2-2-2-2-2-2-2-2-2-2-2-2-2-2-2-2-2--- ---------| 
A|-0-0-0-0-0-0-0-0-0-0-0-0-0-0-0-0-0-0-0-0-0-0-0-0-0-0-0-0-0-0-0-0-------------| 
E|-----------------------------------------------------------------------------| 





Chorus: 

 Guitar II: "And here lies my green eyes" 
E|-0-0-0-0-0-0-0-0--0-0-0-0-0-0-0-0--0-0-0-0-0-0-0-0--0-0-0-0-0-0-0-0----------------------| 
B|-0-0-0-0-0-0-0-0--0-0-0-0-0-0-0-0--0-0-0-0-0-0-0-0--0-0-0-0-0-0-0-0----------------------| 
G|-9-9-9-9-9-9-9-9--8-8-8-8-8-8-8-8--6-6-6-6-6-6-6-6--8-8-8-8-8-8-8-8----------------------| 
D|------------------------------------------------------------------------------       A|--| (x2) 
E|-----------------------------------------------------------------------------------------| 

"And You're forgiven": 
E|--0----------------------------------------------------------------------------------| 
B|--0----------------------------------------------------------------------------------| 
G|--2------strum this chord for remainder of the chorus and throughout the next verse--| 
D|--2----------------------------------------------------------------------------------| 
A|--0----------------------------------------------------------------------------------| 
E|-------------------------------------------------------------------------------------| 



Verse II 
(You could play this Guitar I part for the second verse for better sound if played  
acoustically, otherwise i don't think it is in the actual song) 

(Optional) Guitar I: through verse 
E|-----------------------------------------0-0-0-0-0-0-0-0---------------------| 
B|-----------------------------------------0-0-0-0-0-0-0-0---------------------| 
G|---4-4-4-4-4-4-4-4---1-1-1-1-1-1-1-1---2-2-2-2-2-2-2-2--1-1-1-1-1-1-1-1------| 
D|---4-4-4-4-4-4-4-4---2-2-2-2-2-2-2-2---2-2-2-2-2-2-2-2--2-2-2-2-2-2-2-2------| 
A|---2-2-2-2-2-2-2-2---2-2-2-2-2-2-2-2---0-0-0-0-0-0-0-0--2-2-2-2-2-2-2-2------| 
E|----------------------0-0-0-0-0-0-0-0---------------------0-0-0-0-0-0-0-0----| 

"And I stand here in my shoes":   hold this until the chorus begins 
E|-0-0-0-0-0-0-0-0-0-0-0-0-0-0-0-0-0-0-0-0-0-0-0-0-0-0-0-0-0-0-0-0-------------| 
B|-0-0-0-0-0-0-0-0-0-0-0-0-0-0-0-0-0-0-0-0-0-0-0-0-0-0-0-0-0-0-0-0-------------| 
G|-2-2-2-2-2-2-2-2-2-2-2-2-2-2-2-2-2-2-2-2-2-2-2-2-2-2-2-2-2-2-2-2-- ----------| 
D|-2-2-2-2-2-2-2-2-2-2-2-2-2-2-2-2-2-2-2-2-2-2-2-2-2-2-2-2-2-2-2-2--- ---------| 
A|-0-0-0-0-0-0-0-0-0-0-0-0-0-0-0-0-0-0-0-0-0-0-0-0-0-0-0-0-0-0-0-0-------------| 
E|-----------------------------------------------------------------------------| 


Guitar II 
E|--0---------------------------------------------------------------------------| 
B|--0---------------------------------------------------------------------------| 
G|--2------strum throughout verse-------------------- --------------------------| 
D|--2---------------------------------------------------------------------------| 
A|--0---------------------------------------------------------------------------| 
E|------------------------------------------------------------------------------| 




Chorus: 


Repeat Chorus: "And here lies my green eyes" 
E|-0-0-0-0-0-0-0-0--0-0-0-0-0-0-0-0--0-0-0-0-0-0-0-0--0-0-0-0-0-0-0-0-----| 
B|-0-0-0-0-0-0-0-0--0-0-0-0-0-0-0-0--0-0-0-0-0-0-0-0--0-0-0-0-0-0-0-0-----| 
G|-9-9-9-9-9-9-9-9--8-8-8-8-8-8-8-8--6-6-6-6-6-6-6-6--8-8-8-8-8-8-8-8-----| 
D|------------------------------------------------------------------------| |(x4) 
A|------------------------------------------------------------------------| 
E|------------------------------------------------------------------------| 

"And You're forgiven": 
E|--0---------------------------------------------------------------------------| 
B|--0---------------------------------------------------------------------------| 
G|--2------strum until interlude/outro-------------------- ---------------------| 
D|--2---------------------------------------------------------------------------| 
A|--0---------------------------------------------------------------------------| 
E|------------------------------------------------------------------------------| 


Interlude/outro: 
First bit of interlude 
E|--0---------------------------------------------------------------------------| 
B|--0---------------------------------------------------------------------------| 
G|--2------strum for a LONG time. -------------------- -------------------------| 
D|--2---------------------------------------------------------------------------| 
A|--0---------------------------------------------------------------------------| 
E|------------------------------------------------------------------------------| 



Ending bit of the interlude/outro, slight change. listen to the song and you should pick it up. 

:"La La La Lo Lo La La": 
E|-0-0-0-0-0-0-0-0--0-0-0-0-0-0-0-0--0-0-0-0-0-0-0-0--0-0-0-0-0-0-0-0-----------| 
B|-0-0-0-0-0-0-0-0--0-0-0-0-0-0-0-0--0-0-0-0-0-0-0-0--0-0-0-0-0-0-0-0-----------| 
G|-9-9-9-9-9-9-9-9--8-8-8-8-8-8-8-8--6-6-6-6-6-6-6-6--8-8-4-4-6-6-8-8-----------| 
D|------------------------------------------------------------------------------| 
A|------------------------------------------------------------------------------| 
E|------------------------------------------------------------------------------| 
Repeat this to the end 
and thats it!