Thats It Thats All chords

We Are The City

  			

         1              2               1               2        
         |      -       \       -       |       -       \       -       | 
                                                                 
e|---------------------------------------------------------------------------| 
B|---------------------------------------------------------------------------| 
G|---------------------------------------------------------------------------| 
D|---------------------------------------------------------------------------| 
A|---------------------------------------------------------------------------| 
E|---------------------------------------------------------------------------| 


                        Drum Fill 
         1              2               1               2                
         |      -       \       -       |       -       \       -       | 
                                                                                 
e|---------------------------------------------------------------------------| 
B|---------------------------------------------------------------------------| 
G|--------------------------------------9------------------------------------| 
D|--------------------------------------11-----------------------------------| 
A|--------------------------------------9------------------------------------| 
E|--------------------------------------10-----------------------------------| 

  
        1               2               1               2 
        |       -       \       -       |       -       \       -       | 
                                                                                 
e|---------------------------------------------------------------------------| 
B|---------------------------------------------------------------------------| 
G|----------------------9\---------------------------------------------------| 
D|----------------------11\--------------------------------------------------| 
A|----------------------9\---------------------------------------------------| 
E|----------------------10\--------------------------------------------------| 




        1               2               1               2                
        |       -       \       -       |       -       \       -       | 
                                                                                 
e|---------------------------------------------------------------------------| 
B|---------------------------------------------------------------------------| 
G|------4--------------------------------------------------------------------| 
D|------5--------------------------------------------------------------------| 
A|------5--------------------------------------------------------------------| 
E|------3--------------------------------------------------------------------| 



        1               2               1               2                
        |       -       \       -       |       -       \       -       | 
                                                                                 
e|---------------------------------------------------------------------------| 
B|---------------------------------------------------------------------------| 
G|------6-----------------------7-----------9-----------11\------------------| 
D|------7-----------------------9-----------11----------12\------------------| 
A|------7-----------------------9-----------11----------12\------------------| 
E|------5-----------------------7-----------9-----------10-------------------| 


        1               2               1               2 
        |       -       \       -       |       -       \       -       | 
                                                                                 
e|---------------------------------------------------------------------------| 
B|---------------------------------------------------------------------------| 
G|------4---------------4/---------------------------------------------------| 
D|------5---------------5/---------------------------------------------------| 
A|------5---------------5/---------------------------------------------------| 
E|------3---------------3/---------------------------------------------------| 


(0:17)  1               2               1               2 
        |       -       \       -       |       -       \       -       | 
                                                                                 
e|---------------------------------------------------------------------------| 
B|---------------------------------------------------------------------------| 
G|----------------------9----------------------------------------------------| 
D|----------------------11---------------------------------------------------| 
A|----------------------9----------------------------------------------------| 
E|----------------------10---------------------------------------------------| 



        1               2               1               2 
        |       -       \       -       |       -       \       -       | 
                                                                                 
e|---------------------------------------------------------------------------| 
B|---------------------------------------------------------------------------| 
G|------9\----------------------------------------------4--------------------| 
D|------11\---------------------------------------------5--------------------| 
A|------9\----------------------------------------------5--------------------| 
E|------10\---------------------------------------------3--------------------| 



        1               2               1               2                
        |       -       \       -       |       -       \       -       | 
                                                                                 
e|---------------------------------------------------------------------------| 
B|---------------------------------------------------------------------------| 
G|------------------------------------------------------6--------------------| 
D|------------------------------------------------------7--------------------| 
A|------------------------------------------------------7--------------------| 
E|------------------------------------------------------5--------------------| 



        1               2               1               2 
        |       -       \       -       |       -       \       -       | 
                                                                                 
e|---------------------------------------------------------------------------| 
B|---------------------------------------------------------------------------| 
G|--------------7-----------9-----------11\-------------4--------------------| 
D|--------------9-----------11----------12\-------------5--------------------| 
A|--------------9-----------11----------12\-------------5--------------------| 
E|--------------7-----------9-----------10--------------3--------------------| 



        1               2               1               2 
        |       -       \       -       |       -       \       -       | 
                                                                                 
e|---------------------------------------------------------------------------| 
B|---------------------------------------------------------------------------| 
G|-------4/------------------------------------------------------------------| 
D|-------5/------------------------------------------------------------------| 
A|-------5/------------------------------------------------------------------| 
E|-------3/------------------------------------------------------------------| 




         1              2                        
(0:32)   |      -       \       -       | 
                                                                                 
e|--------------------------------------------| 
B|--------------------------------------------| 
G|-------9------------------------------------| 
D|-------11-----------------------------------| 
A|-------9------------------------------------| 
E|-------10-----------------------------------| 

  
        1               2               1               2 
        |       -       \       -       |       -       \       -       | 
                                                                                 
e|---------------------------------------------------------------------------| 
B|---------------------------------------------------------------------------| 
G|----------------------9\---------------------------------------------------| 
D|----------------------11\--------------------------------------------------| 
A|----------------------9\---------------------------------------------------| 
E|----------------------10\--------------------------------------------------| 




        1               2               1               2                
        |       -       \       -       |       -       \       -       | 
                                                                                 
e|---------------------------------------------------------------------------| 
B|---------------------------------------------------------------------------| 
G|------4--------------------------------------------------------------------| 
D|------5--------------------------------------------------------------------| 
A|------5--------------------------------------------------------------------| 
E|------3--------------------------------------------------------------------| 



        1               2               1               2                
        |       -       \       -       |       -       \       -       | 
                                                                                 
e|---------------------------------------------------------------------------| 
B|---------------------------------------------------------------------------| 
G|------6-----------------------7-----------9-----------11\------------------| 
D|------7-----------------------9-----------11----------12\------------------| 
A|------7-----------------------9-----------11----------12\------------------| 
E|------5-----------------------7-----------9-----------10-------------------| 


        1               2               1               2 
        |       -       \       -       |       -       \       -       | 
                                                                                 
e|---------------------------------------------------------------------------| 
B|---------------------------------------------------------------------------| 
G|------4---------------4/---------------------------------------------------| 
D|------5---------------5/---------------------------------------------------| 
A|------5---------------5/---------------------------------------------------| 
E|------3---------------3/---------------------------------------------------| 


        1               2               1               2 
 (0:45) |       -       \       -       |       -       \       -       | 
                                                                                 
e|---------------------------------------------------------------------------| 
B|---------------------------------------------------------------------------| 
G|----------------------9----------------------------------------------------| 
D|----------------------11---------------------------------------------------| 
A|----------------------9----------------------------------------------------| 
E|----------------------10---------------------------------------------------| 



        1               2               1               2 
        |       -       \       -       |       -       \       -       | 
                                                                                 
e|---------------------------------------------------------------------------| 
B|---------------------------------------------------------------------------| 
G|------9\-------------------------------------------------------------------| 
D|------11\------------------------------------------------------------------| 
A|------9\-------------------------------------------------------------------| 
E|------10\------------------------------------------------------------------| 



        1               2               1               2                
        |       -       \       -       |       -       \       -       | 
                                                                                 
e|---------------------------------------------------------------------------| 
B|---------------------------------------------------------------------------| 
G|------4--------------------------------------------------------------------| 
D|------5--------------------------------------------------------------------| 
A|------5--------------------------------------------------------------------| 
E|------3--------------------------------------------------------------------| 



        1               2               1               2                
        |       -       \       -       |       -       \       -       | 
                                                                                 
e|---------------------------------------------------------------------------| 
B|---------------------------------------------------------------------------| 
G|------6-----------------------7-----------9-----------11\------------------| 
D|------7-----------------------9-----------11----------12\------------------| 
A|------7-----------------------9-----------11----------12\------------------| 
E|------5-----------------------7-----------9-----------10-------------------| 


        1               2               1               2 
        |       -       \       -       |       -       \       -       | 
                                                                                 
e|---------------------------------------------------------------------------| 
B|---------------------------------------------------------------------------| 
G|------4---------------4/---------------------------------------------------| 
D|------5---------------5/---------------------------------------------------| 
A|------5---------------5/---------------------------------------------------| 
E|------3---------------3/---------------------------------------------------| 



        1               2               1               2 
        |       -       \       -       |       -       \       -       | 
                                                                                 
e|---------------------------------------------------------------------------| 
B|---------------------------------------------------------------------------| 
G|----------------------9----------------------------------------------------| 
D|----------------------11---------------------------------------------------| 
A|----------------------9----------------------------------------------------| 
E|----------------------10---------------------------------------------------| 



        1               2               1               2 
        |       -       \       -       |       -       \       -       | 
                                                                                 
e|---------------------------------------------------------------------------| 
B|---------------------------------------------------------------------------| 
G|------9\-------------------------------------------------------------------| 
D|------11\------------------------------------------------------------------| 
A|------9\-------------------------------------------------------------------| 
E|------10\------------------------------------------------------------------| 



        1               2               1               2                
        |       -       \       -       |       -       \       -       | 
                                                                                 
e|------------------------------------------------------(9)------------------| 
B|--------------------------------------------------(7)----------------------| 
G|------4--------------------------------------------------------------------| 
D|------5--------------------------------------------------------------------| 
A|------5--------------------------------------------------------------------| 
E|------3--------------------------------------------------------------------| 



        1               2               1               2                
        |       -       \       -       |       -       \       -       | 
                                                                                 
e|---------------------------------------------------------------------------| 
B|---------------------------------------------------------------------------| 
G|------6-----------------------7-----------9-----------11\------------------| 
D|------7-----------------------9-----------11----------12\------------------| 
A|------7-----------------------9-----------11----------12\------------------| 
E|------5-----------------------7-----------9-----------10-------------------| 


        1               2               1               2 
        |       -       \       -       |       -       \       -       | 
                                                                                 
e|---------------------------------------------------------------------------| 
B|---------------------------------------------------------------------------| 
G|------4---------------4/---------------------------------------------------| 
D|------5---------------5/---------------------------------------------------| 
A|------5---------------5/---------------------------------------------------| 
E|------3---------------3/---------------------------------------------------| 



        1               2               1               2 
(1:14)  |       -       \       -       |       -       \       -       | 
                                                                                 
e|---------------------------------------------------------------------------| 
B|---------------------------------------------------------------------------| 
G|----------------------7----------------------------------------------------| 
D|------9---------------7---------------4---------------5--------------------| 
A|------9---------------5---------------4---------------5--------------------| 
E|------7-------------------------------2---------------3--------------------| 



        1               2               1               2 
        |       -       \       -       |       -       \       -       | 
                                                                                 
e|---------------------------------------------------------------------------| 
B|---------------------------------------------------------------------------| 
G|---------------------------------------------------------------------------| 
D|--------------------------------------6-/-7---/---8-/-9--------------------| 
A|--------------------------------------6-/-7---/---8-/-9--------------------| 
E|--------------------------------------4-/-5---/---6-/-7--------------------| 



        1               2               1               2 
        |       -       \       -       |       -       \       -       | 
                                                                                 
e|---------------------------------------------------------------------------| 
B|---------------------------------------------------------------------------| 
G|----------------------7----------------------------------------------------| 
D|------9---------------7---------------4---------------5--------------------| 
A|------9---------------5---------------4---------------5--------------------| 
E|------7-------------------------------2---------------3--------------------| 



        1               2               1               2 
(1:22)  |       -       \       -       |       -       \       -       | 
                                                                                 
e|--------------------------------------141414\------------------------------| 
B|--------------------------------------151515\------------------------------| 
G|--------------------------------------161616\------------------------------| 
D|---------------------------------------------------------------------------| 
A|---------------------------------------------------------------------------| 
E|---------------------------------------------------------------------------| 



        1               2               1               2 
        |       -       \       -       |       -       \       -       | 
                                                                                 
e|---------------------------------------------------------------------------| 
B|---------------------------------------------------------------------------| 
G|----------------------7----------------------------------------------------| 
D|------9---------------7---------------4---------------5--------------------| 
A|------9---------------5---------------4---------------5--------------------| 
E|------7-------------------------------2---------------3--------------------| 



        1               2               1               2 
        |       -       \       -       |       -       \       -       | 
                                                                                 
e|---------------------------------------------------------------------------| 
B|---------------------------------------------------------------------------| 
G|---------------------------------------------------------------------------| 
D|--------------------------------------6-/-7---/---8-/-9--------------------| 
A|--------------------------------------6-/-7---/---8-/-9--------------------| 
E|--------------------------------------4-/-5---/---6-/-7--------------------| 



        1               2               1               2 
        |       -       \       -       |       -       \       -       | 
                                                                                 
e|---------------------------------------------------------------------------| 
B|---------------------------------------------------------------------------| 
G|----------------------7----------------------------------------------------| 
D|------9---------------7---------------4---------------5--------------------| 
A|------9---------------5---------------4---------------5--------------------| 
E|------7-------------------------------2---------------3--------------------| 


        1               2               1               2 
        |       -       \       -       |       -       \       -       | 
                                                                                 
e|---------------------------------------------------------------------------| 
B|---------------------------------------------------------------------------| 
G|---------------------------------------------------------------------------| 
D|--------------------------------------5-------5-------5--------------------| 
A|--------------------------------------5-------5-------5--------------------| 
E|--------------------------------------3-------3-------3--------------------| 



        1               2               1               2 
(1:37)  |       -       \       -       |       -       \       -       | 
                                                                                 
e|---------------------------------------------------------------------------| 
B|---------------------------------------------------------------------------| 
G|------------------------------------------------------9--------------------| 
D|------------------------------------------------------11-------------------| 
A|------------------------------------------------------9--------------------| 
E|------------------------------------------------------10-------------------| 



        1               2               1               2 
        |       -       \       -       |       -       \       -       | 
                                                                                 
e|---------------------------------------------------------------------------| 
B|---------------------------------------------------------------------------| 
G|--------------------------------------9\-----------------------------------| 
D|--------------------------------------11\----------------------------------| 
A|--------------------------------------9\-----------------------------------| 
E|--------------------------------------10\----------------------------------| 




        1               2               1               2 
        |       -       \       -       |       -       \       -       | 
                                                                                 
e|---------------------------------------------------------------------------| 
B|---------------------------------------------------------------------------| 
G|---------------------------------------------------------------------------| 
D|---------------------------------------------------------------------------| 
A|---------------------------------------------------------------------------| 
E|---------------------------------------------------------------------------| 




        1               2               1               2 
        |       -       \       -       |       -       \       -       | 
                                                                                 
e|---------------------------------------------------------------------------| 
B|---------------------------------------------------------------------------| 
G|---------------------------------------------------------------------------| 
D|---------------------------------------------------------------------------| 
A|---------------------------------------------------------------------------| 
E|---------------------------------------------------------------------------| 


        1               2               1               2                
 (1:47) |       -       \       -       |       -       \       -       | 
                                                                                 
e|---------------------------------------------------------------------------| 
B|---------------------------------------------------------------------------| 
G|------4--------------------------------------------------------------------| 
D|------5--------------------------------------------------------------------| 
A|------5--------------------------------------------------------------------| 
E|------3--------------------------------------------------------------------| 



        1               2               1               2                
        |       -       \       -       |       -       \       -       | 
                                                                                 
e|---------------------------------------------------------------------------| 
B|---------------------------------------------------------------------------| 
G|------6-----------------------7-----------9-----------11\------------------| 
D|------7-----------------------9-----------11----------12\------------------| 
A|------7-----------------------9-----------11----------12\------------------| 
E|------5-----------------------7-----------9-----------10-------------------| 


        1               2               1               2 
        |       -       \       -       |       -       \       -       | 
                                                                                 
e|---------------------------------------------------------------------------| 
B|---------------------------------------------------------------------------| 
G|------4---------------4/---------------------------------------------------| 
D|------5---------------5/---------------------------------------------------| 
A|------5---------------5/---------------------------------------------------| 
E|------3---------------3/---------------------------------------------------| 


        1               2               1               2 
        |       -       \       -       |       -       \       -       | 
                                                                                 
e|---------------------------------------------------------------------------| 
B|---------------------------------------------------------------------------| 
G|----------------------9----------------------------------------------------| 
D|----------------------11---------------------------------------------------| 
A|----------------------9----------------------------------------------------| 
E|----------------------10---------------------------------------------------| 



        1               2               1               2 
        |       -       \       -       |       -       \       -       | 
                                                                                 
e|---------------------------------------------------------------------------| 
B|---------------------------------------------------------------------------| 
G|------9\----------------------------------------------4--------------------| 
D|------11\---------------------------------------------5--------------------| 
A|------9\----------------------------------------------5--------------------| 
E|------10\---------------------------------------------3--------------------| 



        1               2               1               2                
        |       -       \       -       |       -       \       -       | 
                                                                                 
e|---------------------------------------------------------------------------| 
B|---------------------------------------------------------------------------| 
G|------------------------------------------------------6--------------------| 
D|------------------------------------------------------7--------------------| 
A|------------------------------------------------------7--------------------| 
E|------------------------------------------------------5--------------------| 



        1               2               1               2 
        |       -       \       -       |       -       \       -       | 
                                                                                 
e|---------------------------------------------------------------------------| 
B|---------------------------------------------------------------------------| 
G|--------------7-----------9-----------11\-------------4--------------------| 
D|--------------9-----------11----------12\-------------5--------------------| 
A|--------------9-----------11----------12\-------------5--------------------| 
E|--------------7-----------9-----------10--------------3--------------------| 



        1               2               1               2 
        |       -       \       -       |       -       \       -       | 
                                                                                 
e|---------------------------------------------------------------------------| 
B|---------------------------------------------------------------------------| 
G|-------4/------------------------------------------------------------------| 
D|-------5/------------------------------------------------------------------| 
A|-------5/------------------------------------------------------------------| 
E|-------3/------------------------------------------------------------------| 


         1              2                        
(2:10)   |      -       \       -       | 
                                                                                 
e|--------------------------------------------| 
B|--------------------------------------------| 
G|-------9------------------------------------| 
D|-------11-----------------------------------| 
A|-------9------------------------------------| 
E|-------10-----------------------------------| 

  
        1               2               1               2 
        |       -       \       -       |       -       \       -       | 
                                                                                 
e|---------------------------------------------------------------------------| 
B|---------------------------------------------------------------------------| 
G|----------------------9\---------------------------------------------------| 
D|----------------------11\--------------------------------------------------| 
A|----------------------9\---------------------------------------------------| 
E|----------------------10\--------------------------------------------------| 




        1               2               1               2                
        |       -       \       -       |       -       \       -       | 
                                                                                 
e|---------------------------------------------------------------------------| 
B|---------------------------------------------------------------------------| 
G|------4--------------------------------------------------------------------| 
D|------5--------------------------------------------------------------------| 
A|------5--------------------------------------------------------------------| 
E|------3--------------------------------------------------------------------| 



        1               2               1               2                
        |       -       \       -       |       -       \       -       | 
                                                                                 
e|---------------------------------------------------------------------------| 
B|---------------------------------------------------------------------------| 
G|------6-----------------------7-----------9-----------11\------------------| 
D|------7-----------------------9-----------11----------12\------------------| 
A|------7-----------------------9-----------11----------12\------------------| 
E|------5-----------------------7-----------9-----------10-------------------| 


        1               2               1               2 
        |       -       \       -       |       -       \       -       | 
                                                                                 
e|---------------------------------------------------------------------------| 
B|---------------------------------------------------------------------------| 
G|------4---------------4/---------------------------------------------------| 
D|------5---------------5/---------------------------------------------------| 
A|------5---------------5/---------------------------------------------------| 
E|------3---------------3/---------------------------------------------------| 


        1               2               1               2 
        |       -       \       -       |       -       \       -       | 
                                                                                 
e|---------------------------------------------------------------------------| 
B|---------------------------------------------------------------------------| 
G|----------------------9----------------------------------------------------| 
D|----------------------11---------------------------------------------------| 
A|----------------------9----------------------------------------------------| 
E|----------------------10---------------------------------------------------| 



        1               2               1               2 
        |       -       \       -       |       -       \       -       | 
                                                                                 
e|---------------------------------------------------------------------------| 
B|---------------------------------------------------------------------------| 
G|------9\-------------------------------------------------------------------| 
D|------11\------------------------------------------------------------------| 
A|------9\-------------------------------------------------------------------| 
E|------10\------------------------------------------------------------------| 


        1               2               1               2                
        |       -       \       -       |       -       \       -       | 
                                                                                 
e|---------------------------------------------------------------------------| 
B|---------------------------------------------------------------------------| 
G|------4--------------------------------------------------------------------| 
D|------5--------------------------------------------------------------------| 
A|------5--------------------------------------------------------------------| 
E|------3--------------------------------------------------------------------| 



        1               2               1               2                
        |       -       \       -       |       -       \       -       | 
                                                                                 
e|---------------------------------------------------------------------------| 
B|---------------------------------------------------------------------------| 
G|------6-----------------------7-----------9-----------11\------------------| 
D|------7-----------------------9-----------11----------12\------------------| 
A|------7-----------------------9-----------11----------12\------------------| 
E|------5-----------------------7-----------9-----------10-------------------| 


        1               2               1               2 
        |       -       \       -       |       -       \       -       | 
                                                                                 
e|---------------------------------------------------------------------------| 
B|---------------------------------------------------------------------------| 
G|------4---------------4/---------------------------------------------------| 
D|------5---------------5/---------------------------------------------------| 
A|------5---------------5/---------------------------------------------------| 
E|------3---------------3/---------------------------------------------------| 

        1               2               1               2 
(2:38)  |       -       \       -       |       -       \       -       | 
                                                                                 
e|---------------------------------------------------------------------------| 
B|---------------------------------------------------------------------------| 
G|----------------------7----------------------------------------------------| 
D|------9---------------7---------------4---------------5--------------------| 
A|------9---------------5---------------4---------------5--------------------| 
E|------7-------------------------------2---------------3--------------------| 



        1               2               1               2 
        |       -       \       -       |       -       \       -       | 
                                                                                 
e|---------------------------------------------------------------------------| 
B|---------------------------------------------------------------------------| 
G|---------------------------------------------------------------------------| 
D|--------------------------------------6-/-7---/---8-/-9--------------------| 
A|--------------------------------------6-/-7---/---8-/-9--------------------| 
E|--------------------------------------4-/-5---/---6-/-7--------------------| 



        1               2               1               2 
        |       -       \       -       |       -       \       -       | 
                                                                                 
e|---------------------------------------------------------------------------| 
B|---------------------------------------------------------------------------| 
G|----------------------7----------------------------------------------------| 
D|------9---------------7---------------4---------------5--------------------| 
A|------9---------------5---------------4---------------5--------------------| 
E|------7-------------------------------2---------------3--------------------| 



        1               2               1               2 
(2:47)  |       -       \       -       |       -       \       -       | 
                                                                                 
e|--------------------------------------141414\------------------------------| 
B|--------------------------------------151515\------------------------------| 
G|--------------------------------------161616\------------------------------| 
D|---------------------------------------------------------------------------| 
A|---------------------------------------------------------------------------| 
E|---------------------------------------------------------------------------| 



        1               2               1               2 
        |       -       \       -       |       -       \       -       | 
                                                                                 
e|---------------------------------------------------------------------------| 
B|---------------------------------------------------------------------------| 
G|----------------------7----------------------------------------------------| 
D|------9---------------7---------------4---------------5--------------------| 
A|------9---------------5---------------4---------------5--------------------| 
E|------7-------------------------------2---------------3--------------------| 



        1               2               1               2 
        |       -       \       -       |       -       \       -       | 
                                                                                 
e|---------------------------------------------------------------------------| 
B|---------------------------------------------------------------------------| 
G|---------------------------------------------------------------------------| 
D|--------------------------------------6-/-7---/---8-/-9--------------------| 
A|--------------------------------------6-/-7---/---8-/-9--------------------| 
E|--------------------------------------4-/-5---/---6-/-7--------------------| 



        1               2               1               2 
        |       -       \       -       |       -       \       -       | 
                                                                                 
e|---------------------------------------------------------------------------| 
B|---------------------------------------------------------------------------| 
G|----------------------7----------------------------------------------------| 
D|------9---------------7---------------4---------------5--------------------| 
A|------9---------------5---------------4---------------5--------------------| 
E|------7-------------------------------2---------------3--------------------| 


        1               2               1               2 
        |       -       \       -       |       -       \       -       | 
                                                                                 
e|---------------------------------------------------------------------------| 
B|---------------------------------------------------------------------------| 
G|---------------------------------------------------------------------------| 
D|--------------------------------------6---7-------8---9--------------------| 
A|--------------------------------------6---7-------8---9--------------------| 
E|--------------------------------------4---5-------6---7--------------------| 



        1               2               1               2 
        |       -       \       -       |       -       \       -       | 
                                                                                 
e|---------------------------------------------------------------------------| 
B|---------------------------------------------------------------------------| 
G|---------------------------------------------------------------------------| 
D|------10--11------12--13---------------------------------------------------| 
A|------10--11------12--13--------------14---15-----16--17-------------------| 
E|------8---9-------10--11--------------12---13-----14--15-------------------| 



        1               2               1               2 
        |       -       \       -       |       -       \       -       | 
                                                                                 
e|---------------------------------------------------------------------------| 
B|---------------------------------------------------------------------------| 
G|---------------------------------------------------------------------------| 
D|---------------------------------------------------------------------------| 
A|------18---19-----20--21\--------------------------------------------------| 
E|------16---17-----18--19\--------------------------------------------------| 



        1               2               1               2 
(3:04)  |       -       \       -       |       -       \       -       | 
                                                                                 
e|--------------------------------------0------------------------------------| 
B|--------------------------------------5------------------------------------| 
G|--------------------------------------6------------------------------------| 
D|--------------------------------------4------------------------------------| 
A|--------------------------------------5------------------------------------| 
E|---------------------------------------------------------------------------| 


     End 
    	

Top songs from We Are The City