Call Me Anything chords

Weeping Willows

Key: 

  			
Intro: Em  


Verse: 

Em    
The first time I met you       
                              Am 
I touched you with my unclean hands 

I was half honest 
G6     Bm            Em   
And my mind was on a spree 

Don't say you love me    
                             Am 
Because it means I might get hurt 

But when you're smiling 
G6     Bm                 C   
I get goosebumps all over me 


                Am          G 
You can call me anytime you want to 
        Em  
cause I like you 
C               Am           G  
You can call me anything you want to 
        Em 
cause I like you 
C                  Am  
No one but you can call me baby 
C                  Amadd2 
No one but you can call me ugly 
C               Am           Em  
You can call me anything you want to 

Verse: 

Em           
Ill put my cards out 
               Am 
On the table tonight 

A need to be needed 
G6        Bm           Em 
Or was it love at last sight 

When Im drugged up 
                   Am 
I get loved up you see 

I like dogs 
G6    Bm                 C 
cause dogs are just like me 


                Am          G 
You can call me anytime you want to 
        Em  
cause I like you 
C               Am           G  
You can call me anything you want to 
        Em 
cause I like you 
C                  Am  
No one but you can call me baby 
C                  Am 
No one but you can call me ugly 
C               Am           Em  
You can call me anything you want to 

Stick/Solo: 

  C5               D5 
|-----------------|-----------------| 
|-----------------|-----------------| 
|-5-5-5-5-5-5-5-5-|-7-7-7-7-7-7-7-7-| 
|-5-5-5-5-5-5-5-5-|-7-7-7-7-7-7-7-7-| 
|-3-3-3-3-3-3-3-3-|-5-5-5-5-5-5-5-5-| 
|-----------------|-----------------| 


  E5                G5 
|-----------------|--------------------------| 
|-----------------|--------------------------| 
|-9-9-9-9-9-9-9-9-|-12-12-12-12-12-12-12-12--|   X2 
|-7-7-7-7-7-7-7-7-|-12-12-12-12-12-12-12-12--| 
|-7-7-7-7-7-7-7-7-|-10-10-10-10-10-10-10-10--| 
|-----------------|--------------------------| 
3rd time:  

  C5               D5                E5                E5 
|-----------------|-----------------|-----------------|------------------| 
|-----------------|-----------------|-----------------|------------------| 
|-5-5-5-5-5-5-5-5-|-7-7-7-7-7-7-7-7-|-9-9-9-9-9-9-9-9-|-9-9-9-9-9-9-9-9--| 
|-5-5-5-5-5-5-5-5-|-7-7-7-7-7-7-7-7-|-7-7-7-7-7-7-7-7-|-7-7-7-7-7-7-7-7--| 
|-3-3-3-3-3-3-3-3-|-5-5-5-5-5-5-5-5-|-7-7-7-7-7-7-7-7-|-7-7-7-7-7-7-7-7--| 
|-----------------|-----------------|-----------------|------------------| 




C                Am          G 
You can call me anytime you want to 
        Em  
cause I like you 
C               Am           G  
You can call me anything you want to 
        Em 
cause I like you 
C                  Am  
No one but you can call me baby 
C                  Am 
No one but you can call me ugly 
C               Am          Em 
You can call me anytime you want to 
        G 
cause I like you 
F               Dm           Am  
You can call me anything you want to 
        C 
cause I like you 
F                  Dm  
No one but you can call me baby 
F                  Dm 
No one but you can call me ugly 
F               Dm           Am  
You can call me anything you want to