Rabies chords

Witchfinder General

  			



Tuning: C-Standard 



Verse I (0:00) 
============== 

Riff 1a 

 1 e + a 2 e + a 3 e + a 4 e + a 1 e + a 2 e + a 3 e + a 4 e + a  
|-------------------------------|-------------------------------| 
|-------------------------------|-------------------------------| 
|2---2---2---2-----------5---4--|-------------------------------| x1 
|0---0---0---0---2-------3---2--|-------------------------------| 
|----------------0--------------|-------------------------------| 
|-------------------------------|-------------------------------| 




Riff 1b 

 1 e + a 2 e + a 3 e + a 4 e + a 1 e + a 2 e + a 3 e + a 4 e + a  
|-------------------------------|-------------------------------| 
|-------------------------------|-------------------------------| 
|2---2---2---2-----------5---4--|-------------------------------| x1 
|0---0---0---0---2-------3---2--|----------------3---3----------| 
|----------------0--------------|----0---2---3-----------3---0--| 
|-------------------------------|-------------------------------| 




Riff 1a x 1 

Riff 1b x 1 

Riff 1a x 1 

Riff 1b x 1 

Riff 1a x 1 

Riff 1b x 1 




Chorus I (0:35) 
=============== 

Riff 2 

 1 e + a 2 e + a 3 e + a 4 e + a 1 e + a 2 e + a 3 e + a 4 e + a  
|-------------------------------|-------------------------------| 
|-------------------------------|-------------------------------| 
|2-----------2---2-----------2--|2------------------------------| x6 
|0-----------0---0-----------0--|0---3---2---1------------------| 
|-------------------------------|----------------3---2---1------| 
|-------------------------------|----------------------------3--| 




Post-Chorus (0:57) 
================== 

Riff 3a 

 1 e + a 2 e + a 3 e + a 4 e + a 1 e + a 2 e + a 3 e + a 4 e + a  
|-------------------------------|-------------------------------| 
|-------------------------------|-------------------------------| 
|-------------------------------|------------------------2------| x1 
|--------4---4---4-------4------|------------------------0------| 
|0-h-2---2---2---2-------2---0--|3---2---0---3---2---0----------| 
|-------------------------------|-------------------------------| 




Riff 3b 

 1 e + a 2 e + a 3 e + a 4 e + a 1 e + a 2 e + a 3 e + a 4 e + a  
|-------------------------------|-------------------------------| 
|-------------------------------|-------------------------------| 
|-------------------------------|------------------------4------| x1 
|--------4---4---4-------4------|------------------------2------| 
|0-h-2---2---2---2-------2---0--|3---2---0---3---2---0----------| 
|-------------------------------|-------------------------------| 




Riff 3a x 1 

Riff 3b x 1 

Riff 3a x 1 

Riff 3b x 1 




Verse II (1:17) 
=============== 

Riff 1a x 1 

Riff 1b x 1 

Riff 1a x 1 

Riff 1b x 1 

Riff 1a x 1 

Riff 1b x 1 

Riff 1a x 1 

Riff 1b x 1 

Riff 1a x 1 

Riff 1b x 1 




Chorus II (1:54) 
================ 

Riff 2 x 6 




Bridge (2:16) 
============= 

Riff 4 

 1 e + a 2 e + a 3 e + a 4 e + a 1 e + a 2 e + a 3 e + a 4 e + a  
|-------------------------------|-------------------------------| 
|-------------------------------|-------------------------------| 
|----5---4---2------------------|------------4------------------| x4 
|----------------4-------5------|--------2-------------5--------| 
|0---------------------------0--|3---5--------------------------| 
|-------------------------------|-------------------------------| 
                             .   .   .   . 



Solo (2:29) 
=========== 

Note: This next section is my best guess as to what the rhythm  
guitar is playing underneath the solo. Its volume in the mix is 
really low, which makes it pretty difficult to hear clearly, but  
hopefully this is a fairly close rendition to what is being played 
in the song (please feel free to leave me a comment if you have  
any corrections/revisions!) 


Riff 5a 

 1 e + a 2 e + a 3 e + a 4 e + a 1 e + a 2 e + a 3 e + a 4 e + a  
|-------------------------------|-------------------------------| 
|-------------------------------|-------------------------------| 
|-------------------------------|-------------------------------| x1 
|-------------------------------|----------------0--------------| 
|0-h-2-------2---2--------------|----0---2---4-------4---2---0--| 
|-------------------------------|-------------------------------| 



Riff 5b 

 1 e + a 2 e + a 3 e + a 4 e + a 1 e + a 2 e + a 3 e + a 4 e + a  
|-------------------------------|-------------------------------| 
|-------------------------------|-------------------------------| 
|-------------------------------|-------------------------------| x1 
|-------------------------------|----------------0-------2-h-0--| 
|4h5p4-----------2---2----------|----0---2---4-------4----------| 
|-------------------------------|-------------------------------| 



Riff 5c 

 1 e + a 2 e + a 3 e + a 4 e + a 1 e + a 2 e + a 3 e + a 4 e + a  
|-------------------------------|-------------------------------| 
|-------------------------------|-------------------------------| 
|-------------------------------|-------------------------------| x1 
|-------------------------------|-------------------------------| 
|0------------------------------|----0---2---4---5---4h5p4---0--| 
|-------------------------------|-------------------------------| 



Riff 5d 

 1 e + a 2 e + a 3 e + a 4 e + a 1 e + a 2 e + a 3 e + a 4 e + a  
|-------------------------------|-------------------------------| 
|-------------------------------|-------------------------------| 
|-------------------------------|-------------------------------| x1 
|-------------------------------|-------------------------------| 
|5-\-4-------2---2--------------|-------------------------------| 
|-------------------------------|-------------------------------| 




Riff 5a x 1 

Riff 5b x 1 

Riff 5c x 1 

Riff 5d x 1 




Riff 6a 

 1 e + a 2 e + a 3 e + a 4 e + a 1 e + a 2 e + a 3 e + a 4 e + a  
|-------------------------------|-------------------------------| 
|-------------------------------|-------------------------------| 
|-------------------------------|-------------------------------| x1 
|-------------------------------|-------------------------------| 
|2-h-4-------4---4--------------|------------4---6---7---6------| 
|-------------------------------|-------------------------------| 



Riff 6b 

 1 e + a 2 e + a 3 e + a 4 e + a 1 e + a 2 e + a 3 e + a 4 e + a  
|-------------------------------|-------------------------------| 
|-------------------------------|-------------------------------| 
|-------------------------------|-------------------------------| x1 
|-------------------------------|-------------------------------| 
|6h7p6-------4---4--------------|---/6-------4---6---7---6------| 
|-------------------------------|-------------------------------| 



Riff 6c 

 1 e + a 2 e + a 3 e + a 4 e + a 1 e + a 2 e + a 3 e + a 4 e + a  
|-------------------------------|-------------------------------| 
|-------------------------------|-------------------------------| 
|-------------------------------|-------------------------------| x1 
|-------------------------------|-------------------------------| 
|2------------------------------|------------4---6---7---6---4--| 
|-------------------------------|-------------------------------| 



Riff 6d 

 1 e + a 2 e + a 3 e + a 4 e + a 1 e + a 2 e + a 3 e + a 4 e + a  
|-------------------------------|-------------------------------| 
|-------------------------------|-------------------------------| 
|-------------------------------|-------------------------------| x1 
|-------------------------------|-------------------------------| 
|6h7p6-------4---4--------------|-------------------------------| 
|-------------------------------|-------------------------------| 




Verse III/Ending (3:09) 
======================= 

Riff 7a 

 1 e + a 2 e + a 3 e + a 4 e + a 1 e + a 2 e + a 3 e + a 4 e + a  
|-------------------------------|-------------------------------| 
|-------------------------------|-------------------------------| 
|--------4---2------------------|-------------------------------| x6 
|----------------4---5----------|-------------------------------| 
|0-----------------------0---3--|5---0---3---5-------3-------5--| 
|-------------------------------|-------------------------------| 
                         .   .   .   .   . 



Riff 7b 

 1 e + a 2 e + a 3 e + a 4 e + a 1 e + a 2 e + a 3 e + a 4 e + a  
|-------------------------------|-------------------------------| 
|-------------------------------|-------------------------------| 
|--------5---4---2--------------|--------5---4---2--------------| x1 
|--------------------4-------5--|--------------------4-------5--| 
|0------------------------------|0------------------------------| 
|-------------------------------|-------------------------------| 




Riff 7c 

 1 e + a 2 e + a 3 e + a 4 e + a 1 e + a 2 e + a 3 e + a 4 e + a  
|-------------------------------|-------------------------------| 
|-------------------------------|-------------------------------| 
|--------5---4---2--------------|-------------------------------| x1 
|--------------------4-------5--|5---7---7---5---7--------------| 
|0------------------------------|3---5---5---3---5--------------| 
|-------------------------------|-------------------------------| 




Riff 8 

 1 + 2 + 3 + 4 + 1 + 2 + 3 + 4 + 1 + 2 + 3 + 4 + 1 + 2 + 3 + 4 + 
|---------------|---------------|---------------|---------------| 
|---------------|---------------|---------------|---------------| 
|---------------|---------------|---------------|---------------| x1 
|2--------------|---------------|---------------|2--------------| 
|0--------------|---------------|---------------|0--------------| 
|---------------|---------------|---------------|---------------| 



And that's it! 



************************************ 

| /   slide up 
| \   slide down 
| h   hammer-on 
| p   pull-off 
| v   vibrato 
| +   harmonic 
| â?¢   mute note 
| b   bend 
| pb  pre-bend 
| br  bend release 
| pbr pre-bend release 
| brb bend release bend 

************************************ 
    	

Top songs from Witchfinder General