Suego Faults chords

Wolf Gang

Key: 

  			 
Intro: Gm  A#  D#  A# 


Gm                        A#                        D#                        A# 
 You wait so long to find, to find your body by the lights of the circus show 
Gm                        A#                        D#                        A# 
 I tried to understand, but you say logic is a thing that I will never know 

F                Gm 
Two can play the games you play 
A#                                   D#             A# 
Where will you go running when the grounds leave 
F             Gm 
Traveling out on your own 
A#                                  D# 
You say I'm strong but I know everyone leaves 
  Gm       D#            A#      F     D#    A# 
I want to know if you'll go with me to Suego Faults 

A#            A#   


Gm                        A#                             D#                        A# 
 It's hard to draw the line and walk across it when you can't see the safety net 
Gm                   A#                D#                      A# 
 And everywhere I go, everybody living in someone else's debt 

F                Gm 
Two can play the games you play 
A#                                   D#            A# 
Where will you go running when the grounds leave 
F             Gm 
Traveling out on our own 
A#                                      D#       
The world seems small but I have you beside me 
   
Gm          D#            A#      F     D#    A# 
 I want to know if you'll go with me to Suego Faults 

          (Fm)    (D#)    (A#)                 (Fm)       (D#) 

e|-----6-8-----------------------6--------6---8-------------------| 
B|---6-----9--6--9-8-----------6--------6-------9--6--9-8---------| 
G|-------------------8--8--7h8------7h8--------------------8--8---| 
D|----------------------------------------------------------------| 
A|----------------------------------------------------------------| 
E|----------------------------------------------------------------| 

      
 (Gm)    (Cm)(Gm)    (Cm)   (D#)               (F)             (Gm) (D#) 

e|10--6---8---10--6---8-----------6--11-10-8-6-----5-8--13--11--10~--8~------| 
B|------8-----------8-----------8---------------6----------------------------| 
G|------------------------7--8-----------------------------------------------| 
D|---------------------------------------------------------------------------| 
A|---------------------------------------------------------------------------| 
E|---------------------------------------------------------------------------| 


(Gm)     
Running to Suego Faults 
(F)                    (D#) 
Running to Suego Faults 


F                Gm 
Two can play the games you play 
A#                                   D#            A# 
Where will you go running when the grounds leave 
F             Gm 
Traveling out on your own 
A#                                      D#      
You say I'm strong but I know everyone leaves 
Gm          D#            A#      F     D#    A# 
 I want to know if you'll go with me to Suego Faults.