Full Hands Empty Hearts chords

Worthwhile

  			
e------------------| 
B------------------| 
G-7777-------------| 
D-xxxx-------------| 
A-5555-------------| 
E------------------| 


e------------------------| 
B------------------------| 
G------------------------| 
D-0xx0xxxx00-----333-----| 
A-0xx0xxxx00-----333-----|   REPEAT, replace 3 with 1 the second time. 
E-0xx0xxxx00--x4--333----| 

Ring out and then 3. Ring out again and then 1. 


e------------------------------------------------------| 
B------------------------------------------------------| 
G-------5/777777-----101010/12/999999------------------| 
D-0000--x/xxxxxx-----x-x-x--x--xxxxxx------------------| 
A-0000--3/555555-----8-8-8/10/777777-------------------| 
E-0000-------------------------------------------------| 

e-------------------------------------| 
B-------------------------------------| 
G-------5/777777/77777/3---3----------| 
D-0000--x/xxxxxx/xxxxx/x---x----------| 
A-0000--3/555555/55555/1---1----------| 
E-0000--------------------------------|   Both parts twice. 


Ring out 

e--------------| 
B--------------| 
G--7-----------| 
D---7----------| 
A----5---------| 
E--------------| 

Ring out 


e-----------------------------------| 
B-----------------------------------| 
G-------7777--------777/8-----------| 
D-000--xxxx---000---xxx/x-----------| 
A-000--5555---000---555/6-----------| 
E-000----------000------------------| 

e---------------------------------| 
B---------------------------------| 
G------7777-----------------------| 
D-000--xxxx/333/111---------------| 
A-000--5555/333/111---------------| 
E-000-------/333/111--------------|x2