Food In The Belly chords

Xavier Rudd

Key: 

  			FOOD IN THE BELLY - Xavier Rudd 

Tabbed By [email protected] (1st June 2007) 


Guitar (lap-steel / slide)  
tuning E-A-E-E-A-E 


Verse 
----------------------------------------- 
--0-------3p0---------0-------3p0--3s5--- 
-----0h3--3p0--3s5-------0h3--3p0--3s5---   
---------------3s5----------------------- 
--0-------3p0---------0-------3p0--3s5--- 
---------------3s5----------------------- 


Chorus 
----------------------------------------- 
-0------7s5----5---5---3s2--------------- 
---0h3--7s5----5---5---3s2---3s5--------- 
-----------------------------3s5--------- 
-0------7s5--5---5-----3s2--------------- 
-----------------------------3s5--------- 


----------------------------------------- 
-0------7s5----5---5---3s2p0---2s3------- 
---0h3--7s5----5---5---3s2p0---2s3------- 
----------------------------------------- 
-0------7s5--5---5---3-------2----------- 
----------------------------------------- 


----------------------------------------- 
-0------7s5----5---5---3s2--------------- 
---0h3--7s5----5---5---3s2---3s5--------- 
-----------------------------3s5--------- 
-0------7s5--5---5-----3s2--------------- 
-----------------------------3s5--------- 


----------------------------------------- 
-0------7s5----5---5----3s2p0--2--------- 
---0h3--7s5----5---5----3s2p0--2--------- 
----------------------------------------- 
-0------7s5--5---5----3--------2--------- 
----------------------------------------- 
then back to the riff (verse) 


Guitar Break 
----------------------------------------- 
-0------12s10----0--5s7-----5s3p0--5s3--- 
---0hx--12s10----0--5s7-----5s3p0--5s3--- 
----------------------------------------- 
-0------12s10--0----5s7--0--5s3p0--5s3--- 
----------------------------------------- 
Then back to the riff (verse) 


With this tab, you'll be able to play easily this beautiful song!  
Don't forget to let the Music Freedom RING !!!! 

Tabbed By [email protected]