To Let chords

Xavier Rudd

Key: 

  			Australia 
Artist - Xavier Rudd 
Title - To Let 
Album - To Let 
 
Tabbed By Jereme Clingan 
 
It's pretty easy, just a couple of hammer on's and pull off's. 
 
Verse/Intro 
e--------------------------------------------------------------------- 
B--------------------------------------------------------------------- 
G-------2---------------2---------------2----------------------------- 
D---0-0---3-2h3p2---0-0---3-2h3p2---0-0---3-2h3p2---5-5-5--3-2h3p2---- 
A--------------------------------------------------------------------- 
E--------------------------------------------------------------------- 
 
Chorus 
e--------------------------------------------------------------------- 
B--------------------------------------------------------------------- 
G---7----10---7----5----7----10---7----4-5---------------------------- 
D---7----10---7----5----7----10---7----4-5---------------------------- 
A---5----8----5----3----5----8----5----2-3---------------------------- 
E--------------------------------------------------------------------- 
 
End of Chorus 
e------------------------------10-10---10-10---10-10---10-10---------- 
B--------------------------------------------------------------------- 
G---7--5--4-5-7--7--10-7-----0-------0-------0-------0---------------- 
D---7--5--4-5-7--7--10-7---------------------------------------------- 
A---5--3--2-3-5--5--8--5---------------------------------------------- 
E--------------------------------------------------------------------- 
 
There's a solo but i haven't worked that out yet 
It's on the B string around the 12th fret.